ISO-10303-21;
HEADER;
FILE_DESCRIPTION (( 'STEP AP203' ),
    '1' );
FILE_NAME ('110-0545E BK7 pl-cx 50.8 F2000.STEP',
    '2018-12-21T07:00:51',
    ( '' ),
    ( '' ),
    'SwSTEP 2.0',
    'SolidWorks 2017',
    '' );
FILE_SCHEMA (( 'CONFIG_CONTROL_DESIGN' ));
ENDSEC;

DATA;
#1 =( GEOMETRIC_REPRESENTATION_CONTEXT ( 3 ) GLOBAL_UNCERTAINTY_ASSIGNED_CONTEXT ( ( #152 ) ) GLOBAL_UNIT_ASSIGNED_CONTEXT ( ( #126, #143, #52 ) ) REPRESENTATION_CONTEXT ( 'NONE', 'WORKASPACE' ) );
#2 = COORDINATED_UNIVERSAL_TIME_OFFSET ( 2, 0, .AHEAD. ) ;
#3 = DATE_AND_TIME ( #148, #19 ) ;
#4 = VERTEX_POINT ( 'NONE', #88 ) ;
#5 = AXIS2_PLACEMENT_3D ( 'NONE', #172, #216, #139 ) ;
#6 = EDGE_LOOP ( 'NONE', ( #144, #193, #112, #217, #119 ) ) ;
#7 = DIRECTION ( 'NONE',  ( 1.000000000000000000, 0.0000000000000000000, 0.0000000000000000000 ) ) ;
#8 = CARTESIAN_POINT ( 'NONE',  ( 17.03816681284344300, 8.570001453747735800, -0.001261300071205012300 ) ) ;
#9 = COORDINATED_UNIVERSAL_TIME_OFFSET ( 2, 0, .AHEAD. ) ;
#10 = CC_DESIGN_APPROVAL ( #117, ( #44 ) ) ;
#11 = ORIENTED_EDGE ( 'NONE', *, *, #58, .F. ) ;
#12 = DIRECTION ( 'NONE',  ( -0.0000000000000000000, -0.0000000000000000000, -1.000000000000000000 ) ) ;
#13 = CC_DESIGN_DATE_AND_TIME_ASSIGNMENT ( #25, #18, ( #50 ) ) ;
#14 = APPLICATION_PROTOCOL_DEFINITION ( 'international standard', 'config_control_design', 1994, #181 ) ;
#15 = CARTESIAN_POINT ( 'NONE',  ( -25.54451802781542100, 25.70473792938391700, 0.6333930279747157500 ) ) ;
#16 = FACE_OUTER_BOUND ( 'NONE', #171, .T. ) ;
#17 = DATE_TIME_ROLE ( 'creation_date' ) ;
#18 = DATE_TIME_ROLE ( 'classification_date' ) ;
#19 = LOCAL_TIME ( 9, 0, 51.00000000000000000, #2 ) ;
#20 = PERSON_AND_ORGANIZATION ( #220, #34 ) ;
#21 = ADVANCED_FACE ( 'NONE', ( #213 ), #235, .T. ) ;
#22 = CIRCLE ( 'NONE', #71, 25.39999999999999900 ) ;
#23 = CC_DESIGN_SECURITY_CLASSIFICATION ( #50, ( #27 ) ) ;
#24 = VERTEX_POINT ( 'NONE', #202 ) ;
#25 = DATE_AND_TIME ( #82, #115 ) ;
#26 = ORIENTED_EDGE ( 'NONE', *, *, #150, .F. ) ;
#27 = PRODUCT_DEFINITION_FORMATION_WITH_SPECIFIED_SOURCE ( 'ANY', '', #141, .NOT_KNOWN. ) ;
#28 = APPROVAL_DATE_TIME ( #61, #29 ) ;
#29 = APPROVAL ( #84, 'UNSPECIFIED' ) ;
#30 = VERTEX_POINT ( 'NONE', #187 ) ;
#31 = CC_DESIGN_PERSON_AND_ORGANIZATION_ASSIGNMENT ( #118, #163, ( #44 ) ) ;
#32 = PRODUCT_DEFINITION_SHAPE ( 'NONE', 'NONE',  #44 ) ;
#33 = CARTESIAN_POINT ( 'NONE',  ( 9.020562075079396900E-014, -25.70473792938388500, 0.3186282912277481600 ) ) ;
#34 = ORGANIZATION ( 'UNSPECIFIED', 'UNSPECIFIED', '' ) ;
#35 = DIRECTION ( 'NONE',  ( 1.000000000000000000, 0.0000000000000000000, 0.0000000000000000000 ) ) ;
#36 = CARTESIAN_POINT ( 'NONE',  ( 9.992007221626412800E-016, 4.884981308350691100E-015, 5.000000000000000000 ) ) ;
#37 = APPLICATION_PROTOCOL_DEFINITION ( 'international standard', 'config_control_design', 1994, #135 ) ;
#38 = CC_DESIGN_PERSON_AND_ORGANIZATION_ASSIGNMENT ( #114, #81, ( #27 ) ) ;
#39 = CC_DESIGN_DATE_AND_TIME_ASSIGNMENT ( #72, #17, ( #44 ) ) ;
#40 = CARTESIAN_POINT ( 'NONE',  ( 9.992007221626412800E-016, 4.884981308350691100E-015, 5.000000000000000000 ) ) ;
#41 = ADVANCED_BREP_SHAPE_REPRESENTATION ( '110-0545E BK7 pl-cx 50.8 F2000', ( #79, #89 ), #1 ) ;
#42 = EDGE_LOOP ( 'NONE', ( #11, #125, #137 ) ) ;
#43 = CARTESIAN_POINT ( 'NONE',  ( 3.410605131648479900E-013, 25.70473792938391700, 0.3186282912277516000 ) ) ;
#44 = PRODUCT_DEFINITION ( 'UNKNOWN', '', #27, #219 ) ;
#45 = DIRECTION ( 'NONE',  ( 1.000000000000000000, 0.0000000000000000000, 0.0000000000000000000 ) ) ;
#46 = CIRCLE ( 'NONE', #198, 25.39999999999999900 ) ;
#47 = CARTESIAN_POINT ( 'NONE',  ( 25.54451802781511200, -25.70473792938388500, 0.6333930279747040900 ) ) ;
#48 = CALENDAR_DATE ( 2018, 21, 12 ) ;
#49 = DIRECTION ( 'NONE',  ( 1.000000000000000000, 0.0000000000000000000, 0.0000000000000000000 ) ) ;
#50 = SECURITY_CLASSIFICATION ( '', '', #196 ) ;
#51 = FACE_OUTER_BOUND ( 'NONE', #42, .T. ) ;
#52 =( NAMED_UNIT ( * ) SI_UNIT ( $, .STERADIAN. ) SOLID_ANGLE_UNIT ( ) );
#53 = AXIS2_PLACEMENT_3D ( 'NONE', #40, #188, #7 ) ;
#54 = DIRECTION ( 'NONE',  ( -0.0000000000000000000, -0.0000000000000000000, -1.000000000000000000 ) ) ;
#55 = APPROVAL_STATUS ( 'not_yet_approved' ) ;
#56 = PERSON_AND_ORGANIZATION ( #220, #34 ) ;
#57 =( BOUNDED_SURFACE ( )  B_SPLINE_SURFACE ( 3, 3, ( 
 ( #69, #94, #154, #47 ),
 ( #124, #179, #95, #73 ),
 ( #221, #203, #8, #68 ),
 ( #43, #106, #176, #156 ) ),
 .UNSPECIFIED., .F., .F., .T. ) 
 B_SPLINE_SURFACE_WITH_KNOTS ( ( 4, 4 ),
 ( 4, 4 ),
 ( 0.0000000000000000000, 1.000000000000000000 ),
 ( 0.0000000000000000000, 1.000000000000000000 ),
 .UNSPECIFIED. ) 
 GEOMETRIC_REPRESENTATION_ITEM ( )  RATIONAL_B_SPLINE_SURFACE ( (
 ( 1.000000000000000000, 0.9999493935339184300, 0.9999493935339184300, 1.000000000000000000),
 ( 0.9997951602113610600, 0.9997445641114972600, 0.9997445641114972600, 0.9997951602113610600),
 ( 0.9997951602113610600, 0.9997445641114972600, 0.9997445641114972600, 0.9997951602113610600),
 ( 1.000000000000000000, 0.9999493935339184300, 0.9999493935339184300, 1.000000000000000000) ) ) 
 REPRESENTATION_ITEM ( '' )  SURFACE ( )  );
#58 = EDGE_CURVE ( 'NONE', #116, #30, #190, .T. ) ;
#59 = VECTOR ( 'NONE', #76, 1000.000000000000000 ) ;
#60 = DIRECTION ( 'NONE',  ( 0.0000000000000000000, 0.0000000000000000000, 1.000000000000000000 ) ) ;
#61 = DATE_AND_TIME ( #48, #109 ) ;
#62 = APPROVAL_PERSON_ORGANIZATION ( #169, #29, #229 ) ;
#63 = FACE_OUTER_BOUND ( 'NONE', #161, .T. ) ;
#64 = CC_DESIGN_PERSON_AND_ORGANIZATION_ASSIGNMENT ( #233, #186, ( #50 ) ) ;
#65 = CARTESIAN_POINT ( 'NONE',  ( 25.39999999999999900, 4.884981308350691100E-015, 0.3111170654910530600 ) ) ;
#66 = AXIS2_PLACEMENT_3D ( 'NONE', #80, #192, #226 ) ;
#67 = VECTOR ( 'NONE', #189, 1000.000000000000000 ) ;
#68 = CARTESIAN_POINT ( 'NONE',  ( 25.55498684783417600, 8.570001453747737600, 0.2086625448885615400 ) ) ;
#69 = CARTESIAN_POINT ( 'NONE',  ( 3.410605131648479900E-013, -25.70473792938388500, 0.3186282912277516000 ) ) ;
#70 = ADVANCED_FACE ( 'NONE', ( #63 ), #140, .T. ) ;
#71 = AXIS2_PLACEMENT_3D ( 'NONE', #134, #182, #128 ) ;
#72 = DATE_AND_TIME ( #104, #157 ) ;
#73 = CARTESIAN_POINT ( 'NONE',  ( 25.55498684783417600, -8.570001453747703800, 0.2086625448885583400 ) ) ;
#74 = CIRCLE ( 'NONE', #66, 25.39999999999999900 ) ;
#75 = CARTESIAN_POINT ( 'NONE',  ( 9.992007221626412800E-016, 4.884981308350691100E-015, 0.3111170654910530600 ) ) ;
#76 = DIRECTION ( 'NONE',  ( 0.0000000000000000000, 0.0000000000000000000, 1.000000000000000000 ) ) ;
#77 = CARTESIAN_POINT ( 'NONE',  ( -17.03118698135775600, -25.70473792938387800, 0.4235551801224145000 ) ) ;
#78 = VERTEX_POINT ( 'NONE', #91 ) ;
#79 = MANIFOLD_SOLID_BREP ( 'Imported1', #105 ) ;
#80 = CARTESIAN_POINT ( 'NONE',  ( 9.992007221626412800E-016, 4.884981308350691100E-015, 0.3111170654910530600 ) ) ;
#81 = PERSON_AND_ORGANIZATION_ROLE ( 'creator' ) ;
#82 = CALENDAR_DATE ( 2018, 21, 12 ) ;
#83 = APPROVAL_ROLE ( '' ) ;
#84 = APPROVAL_STATUS ( 'not_yet_approved' ) ;
#85 = ORIENTED_EDGE ( 'NONE', *, *, #122, .F. ) ;
#86 = CC_DESIGN_PERSON_AND_ORGANIZATION_ASSIGNMENT ( #136, #147, ( #27 ) ) ;
#87 = DATE_AND_TIME ( #123, #197 ) ;
#88 = CARTESIAN_POINT ( 'NONE',  ( -25.39999999999999900, 7.995584178184967200E-015, 5.000000000000000000 ) ) ;
#89 = AXIS2_PLACEMENT_3D ( 'NONE', #146, #160, #49 ) ;
#90 = CARTESIAN_POINT ( 'NONE',  ( -25.39999999999999900, 7.995584178184967200E-015, 0.3111170654910530600 ) ) ;
#91 = CARTESIAN_POINT ( 'NONE',  ( 25.39999999999999900, 4.884981308350691100E-015, 5.000000000000000000 ) ) ;
#92 = VERTEX_POINT ( 'NONE', #90 ) ;
#93 = AXIS2_PLACEMENT_3D ( 'NONE', #155, #218, #45 ) ;
#94 = CARTESIAN_POINT ( 'NONE',  ( 8.515916711016663100, -25.70473792938388500, 0.3186282912277516000 ) ) ;
#95 = CARTESIAN_POINT ( 'NONE',  ( 17.03816681284344300, -8.570001453747700300, -0.001261300071208210700 ) ) ;
#96 = DIRECTION ( 'NONE',  ( 1.000000000000000000, 0.0000000000000000000, 0.0000000000000000000 ) ) ;
#97 = LINE ( 'NONE', #162, #59 ) ;
#98 = AXIS2_PLACEMENT_3D ( 'NONE', #36, #54, #35 ) ;
#99 = CARTESIAN_POINT ( 'NONE',  ( -8.515916711016476600, 25.70473792938391400, 0.3186282912277502700 ) ) ;
#100 = MECHANICAL_CONTEXT ( 'NONE', #181, 'mechanical' ) ;
#101 = APPROVAL ( #55, 'UNSPECIFIED' ) ;
#102 = ORIENTED_EDGE ( 'NONE', *, *, #122, .T. ) ;
#103 = EDGE_CURVE ( 'NONE', #4, #78, #175, .T. ) ;
#104 = CALENDAR_DATE ( 2018, 21, 12 ) ;
#105 = CLOSED_SHELL ( 'NONE', ( #129, #21, #227, #142, #70 ) ) ;
#106 = CARTESIAN_POINT ( 'NONE',  ( 8.515916711016663100, 25.70473792938392100, 0.3186282912277516000 ) ) ;
#107 = DIRECTION ( 'NONE',  ( 0.0000000000000000000, 0.0000000000000000000, 1.000000000000000000 ) ) ;
#108 = CC_DESIGN_APPROVAL ( #101, ( #27 ) ) ;
#109 = LOCAL_TIME ( 9, 0, 51.00000000000000000, #9 ) ;
#110 = ORIENTED_EDGE ( 'NONE', *, *, #103, .F. ) ;
#111 = CARTESIAN_POINT ( 'NONE',  ( -8.519406759223604900, -8.570001453747703800, -0.1062311907838698700 ) ) ;
#112 = ORIENTED_EDGE ( 'NONE', *, *, #103, .T. ) ;
#113 = EDGE_CURVE ( 'NONE', #24, #78, #167, .T. ) ;
#114 = PERSON_AND_ORGANIZATION ( #220, #34 ) ;
#115 = LOCAL_TIME ( 9, 0, 51.00000000000000000, #200 ) ;
#116 = VERTEX_POINT ( 'NONE', #177 ) ;
#117 = APPROVAL ( #164, 'UNSPECIFIED' ) ;
#118 = PERSON_AND_ORGANIZATION ( #220, #34 ) ;
#119 = ORIENTED_EDGE ( 'NONE', *, *, #168, .F. ) ;
#120 = CARTESIAN_POINT ( 'NONE',  ( 3.410605131648479900E-013, 1.136868377216160000E-013, 1037.000000000000000 ) ) ;
#121 = ORIENTED_EDGE ( 'NONE', *, *, #204, .F. ) ;
#122 = EDGE_CURVE ( 'NONE', #24, #116, #166, .T. ) ;
#123 = CALENDAR_DATE ( 2018, 21, 12 ) ;
#124 = CARTESIAN_POINT ( 'NONE',  ( 3.410605131648479400E-013, -8.570001453747703800, -0.1062311907838685700 ) ) ;
#125 = ORIENTED_EDGE ( 'NONE', *, *, #150, .T. ) ;
#126 =( LENGTH_UNIT ( ) NAMED_UNIT ( * ) SI_UNIT ( .MILLI., .METRE. ) );
#127 = APPROVAL_DATE_TIME ( #3, #117 ) ;
#128 = DIRECTION ( 'NONE',  ( 1.000000000000000000, 0.0000000000000000000, 0.0000000000000000000 ) ) ;
#129 = ADVANCED_FACE ( 'NONE', ( #225 ), #57, .T. ) ;
#130 = CC_DESIGN_APPROVAL ( #29, ( #50 ) ) ;
#131 = ORIENTED_EDGE ( 'NONE', *, *, #113, .T. ) ;
#132 = PRODUCT_RELATED_PRODUCT_CATEGORY ( 'detail', '', ( #141 ) ) ;
#133 = CARTESIAN_POINT ( 'NONE',  ( -25.55498684783448500, 8.570001453747737600, 0.2086625448885733000 ) ) ;
#134 = CARTESIAN_POINT ( 'NONE',  ( 9.992007221626412800E-016, 4.884981308350691100E-015, 0.3111170654910530600 ) ) ;
#135 = APPLICATION_CONTEXT ( 'configuration controlled 3d designs of mechanical parts and assemblies' ) ;
#136 = PERSON_AND_ORGANIZATION ( #220, #34 ) ;
#137 = ORIENTED_EDGE ( 'NONE', *, *, #234, .T. ) ;
#138 = CARTESIAN_POINT ( 'NONE',  ( 9.992007221626412800E-016, 4.884981308350691100E-015, 0.3111170654910530600 ) ) ;
#139 = DIRECTION ( 'NONE',  ( 1.000000000000000000, 0.0000000000000000000, -0.0000000000000000000 ) ) ;
#140 = PLANE ( 'NONE',  #5 ) ;
#141 = PRODUCT ( '110-0545E BK7 pl-cx 50.8 F2000', '110-0545E BK7 pl-cx 50.8 F2000', '', ( #100 ) ) ;
#142 = ADVANCED_FACE ( 'NONE', ( #16 ), #206, .T. ) ;
#143 =( NAMED_UNIT ( * ) PLANE_ANGLE_UNIT ( ) SI_UNIT ( $, .RADIAN. ) );
#144 = ORIENTED_EDGE ( 'NONE', *, *, #234, .F. ) ;
#145 = CARTESIAN_POINT ( 'NONE',  ( -25.54451802781542100, -25.70473792938388500, 0.6333930279747157500 ) ) ;
#146 = CARTESIAN_POINT ( 'NONE',  ( 0.0000000000000000000, 0.0000000000000000000, 0.0000000000000000000 ) ) ;
#147 = PERSON_AND_ORGANIZATION_ROLE ( 'design_supplier' ) ;
#148 = CALENDAR_DATE ( 2018, 21, 12 ) ;
#149 = DIRECTION ( 'NONE',  ( 1.000000000000000000, 0.0000000000000000000, 0.0000000000000000000 ) ) ;
#150 = EDGE_CURVE ( 'NONE', #116, #92, #74, .T. ) ;
#151 = APPROVAL_PERSON_ORGANIZATION ( #199, #117, #83 ) ;
#152 = UNCERTAINTY_MEASURE_WITH_UNIT (LENGTH_MEASURE( 1.000000000000000100E-005 ), #126, 'distance_accuracy_value', 'NONE');
#153 = EDGE_LOOP ( 'NONE', ( #102, #201, #209 ) ) ;
#154 = CARTESIAN_POINT ( 'NONE',  ( 17.03118698135769900, -25.70473792938388500, 0.4235551801224171100 ) ) ;
#155 = CARTESIAN_POINT ( 'NONE',  ( 9.992007221626412800E-016, 4.884981308350691100E-015, 0.3111170654910530600 ) ) ;
#156 = CARTESIAN_POINT ( 'NONE',  ( 25.54451802781511600, 25.70473792938391700, 0.6333930279747040900 ) ) ;
#157 = LOCAL_TIME ( 9, 0, 51.00000000000000000, #170 ) ;
#158 = CARTESIAN_POINT ( 'NONE',  ( -8.515916711016476600, -25.70473792938387800, 0.3186282912277502700 ) ) ;
#159 = CIRCLE ( 'NONE', #98, 25.39999999999999900 ) ;
#160 = DIRECTION ( 'NONE',  ( 0.0000000000000000000, 0.0000000000000000000, 1.000000000000000000 ) ) ;
#161 = EDGE_LOOP ( 'NONE', ( #211, #110 ) ) ;
#162 = CARTESIAN_POINT ( 'NONE',  ( -25.39999999999999900, 7.995584178184967200E-015, 0.3111170654910530600 ) ) ;
#163 = PERSON_AND_ORGANIZATION_ROLE ( 'creator' ) ;
#164 = APPROVAL_STATUS ( 'not_yet_approved' ) ;
#165 = SHAPE_DEFINITION_REPRESENTATION ( #32, #41 ) ;
#166 = CIRCLE ( 'NONE', #93, 25.39999999999999900 ) ;
#167 = LINE ( 'NONE', #65, #67 ) ;
#168 = EDGE_CURVE ( 'NONE', #30, #24, #22, .T. ) ;
#169 = PERSON_AND_ORGANIZATION ( #220, #34 ) ;
#170 = COORDINATED_UNIVERSAL_TIME_OFFSET ( 2, 0, .AHEAD. ) ;
#171 = EDGE_LOOP ( 'NONE', ( #121, #26, #85, #131, #205 ) ) ;
#172 = CARTESIAN_POINT ( 'NONE',  ( 0.0000000000000000000, 52.02000000000000300, 5.000000000000000000 ) ) ;
#173 = APPROVAL_DATE_TIME ( #87, #101 ) ;
#174 = DIRECTION ( 'NONE',  ( 1.000000000000000000, 0.0000000000000000000, 0.0000000000000000000 ) ) ;
#175 = CIRCLE ( 'NONE', #53, 25.39999999999999900 ) ;
#176 = CARTESIAN_POINT ( 'NONE',  ( 17.03118698135770300, 25.70473792938392100, 0.4235551801224170500 ) ) ;
#177 = CARTESIAN_POINT ( 'NONE',  ( 3.410605131648479900E-013, -25.39999999999917800, 0.3111170654910409600 ) ) ;
#178 = CARTESIAN_POINT ( 'NONE',  ( 9.992007221626412800E-016, 4.884981308350691100E-015, 0.3111170654910530600 ) ) ;
#179 = CARTESIAN_POINT ( 'NONE',  ( 8.519406759223789600, -8.570001453747700300, -0.1062311907838685300 ) ) ;
#180 = CC_DESIGN_PERSON_AND_ORGANIZATION_ASSIGNMENT ( #56, #231, ( #141 ) ) ;
#181 = APPLICATION_CONTEXT ( 'configuration controlled 3d designs of mechanical parts and assemblies' ) ;
#182 = DIRECTION ( 'NONE',  ( -0.0000000000000000000, -0.0000000000000000000, -1.000000000000000000 ) ) ;
#183 = CARTESIAN_POINT ( 'NONE',  ( -8.519406759223604900, 8.570001453747739400, -0.1062311907838666800 ) ) ;
#184 = CARTESIAN_POINT ( 'NONE',  ( -25.55498684783448500, -8.570001453747703800, 0.2086625448885700800 ) ) ;
#185 = APPROVAL_ROLE ( '' ) ;
#186 = PERSON_AND_ORGANIZATION_ROLE ( 'classification_officer' ) ;
#187 = CARTESIAN_POINT ( 'NONE',  ( 3.410605131648479900E-013, 25.39999999999929500, 0.3111170654910409600 ) ) ;
#188 = DIRECTION ( 'NONE',  ( -0.0000000000000000000, -0.0000000000000000000, -1.000000000000000000 ) ) ;
#189 = DIRECTION ( 'NONE',  ( 0.0000000000000000000, 0.0000000000000000000, 1.000000000000000000 ) ) ;
#190 = CIRCLE ( 'NONE', #228, 1037.000000000000000 ) ;
#191 = EDGE_CURVE ( 'NONE', #78, #4, #159, .T. ) ;
#192 = DIRECTION ( 'NONE',  ( -0.0000000000000000000, -0.0000000000000000000, -1.000000000000000000 ) ) ;
#193 = ORIENTED_EDGE ( 'NONE', *, *, #204, .T. ) ;
#194 = CARTESIAN_POINT ( 'NONE',  ( -17.03118698135775600, 25.70473792938391400, 0.4235551801224145000 ) ) ;
#195 = CARTESIAN_POINT ( 'NONE',  ( 9.020562075079396900E-014, -8.570001453747703800, -0.1062311907838719300 ) ) ;
#196 = SECURITY_CLASSIFICATION_LEVEL ( 'unclassified' ) ;
#197 = LOCAL_TIME ( 9, 0, 51.00000000000000000, #212 ) ;
#198 = AXIS2_PLACEMENT_3D ( 'NONE', #75, #12, #96 ) ;
#199 = PERSON_AND_ORGANIZATION ( #220, #34 ) ;
#200 = COORDINATED_UNIVERSAL_TIME_OFFSET ( 2, 0, .AHEAD. ) ;
#201 = ORIENTED_EDGE ( 'NONE', *, *, #58, .T. ) ;
#202 = CARTESIAN_POINT ( 'NONE',  ( 25.39999999999999900, 4.884981308350691100E-015, 0.3111170654910530600 ) ) ;
#203 = CARTESIAN_POINT ( 'NONE',  ( 8.519406759223789600, 8.570001453747735800, -0.1062311907838653400 ) ) ;
#204 = EDGE_CURVE ( 'NONE', #92, #4, #97, .T. ) ;
#205 = ORIENTED_EDGE ( 'NONE', *, *, #191, .T. ) ;
#206 = CYLINDRICAL_SURFACE ( 'NONE', #222, 25.39999999999999900 ) ;
#207 = CARTESIAN_POINT ( 'NONE',  ( -17.03816681284350700, -8.570001453747703800, -0.001261300071210677500 ) ) ;
#208 = DIRECTION ( 'NONE',  ( 1.000000000000000000, 0.0000000000000000000, 0.0000000000000000000 ) ) ;
#209 = ORIENTED_EDGE ( 'NONE', *, *, #168, .T. ) ;
#210 = CARTESIAN_POINT ( 'NONE',  ( 9.020562075079396900E-014, 25.70473792938391700, 0.3186282912277481600 ) ) ;
#211 = ORIENTED_EDGE ( 'NONE', *, *, #191, .F. ) ;
#212 = COORDINATED_UNIVERSAL_TIME_OFFSET ( 2, 0, .AHEAD. ) ;
#213 = FACE_OUTER_BOUND ( 'NONE', #6, .T. ) ;
#214 = DIRECTION ( 'NONE',  ( 0.0000000000000000000, -1.000000000000000000, -8.564883507233608400E-016 ) ) ;
#215 = AXIS2_PLACEMENT_3D ( 'NONE', #138, #60, #174 ) ;
#216 = DIRECTION ( 'NONE',  ( 0.0000000000000000000, 0.0000000000000000000, 1.000000000000000000 ) ) ;
#217 = ORIENTED_EDGE ( 'NONE', *, *, #113, .F. ) ;
#218 = DIRECTION ( 'NONE',  ( -0.0000000000000000000, -0.0000000000000000000, -1.000000000000000000 ) ) ;
#219 = DESIGN_CONTEXT ( 'detailed design', #135, 'design' ) ;
#220 = PERSON ( 'UNSPECIFIED', 'UNSPECIFIED', 'UNSPECIFIED', ('UNSPECIFIED'), ('UNSPECIFIED'), ('UNSPECIFIED') ) ;
#221 = CARTESIAN_POINT ( 'NONE',  ( 3.410605131648479400E-013, 8.570001453747737600, -0.1062311907838653600 ) ) ;
#222 = AXIS2_PLACEMENT_3D ( 'NONE', #178, #107, #208 ) ;
#223 = APPROVAL_PERSON_ORGANIZATION ( #20, #101, #185 ) ;
#224 = CARTESIAN_POINT ( 'NONE',  ( 9.020562075079396900E-014, 8.570001453747737600, -0.1062311907838687200 ) ) ;
#225 = FACE_OUTER_BOUND ( 'NONE', #153, .T. ) ;
#226 = DIRECTION ( 'NONE',  ( 1.000000000000000000, 0.0000000000000000000, 0.0000000000000000000 ) ) ;
#227 = ADVANCED_FACE ( 'NONE', ( #51 ), #232, .T. ) ;
#228 = AXIS2_PLACEMENT_3D ( 'NONE', #120, #149, #214 ) ;
#229 = APPROVAL_ROLE ( '' ) ;
#230 = CARTESIAN_POINT ( 'NONE',  ( -17.03816681284350700, 8.570001453747739400, -0.001261300071207479100 ) ) ;
#231 = PERSON_AND_ORGANIZATION_ROLE ( 'design_owner' ) ;
#232 =( BOUNDED_SURFACE ( )  B_SPLINE_SURFACE ( 3, 3, ( 
 ( #145, #77, #158, #33 ),
 ( #184, #207, #111, #195 ),
 ( #133, #230, #183, #224 ),
 ( #15, #194, #99, #210 ) ),
 .UNSPECIFIED., .F., .F., .T. ) 
 B_SPLINE_SURFACE_WITH_KNOTS ( ( 4, 4 ),
 ( 4, 4 ),
 ( 0.0000000000000000000, 1.000000000000000000 ),
 ( 0.0000000000000000000, 1.000000000000000000 ),
 .UNSPECIFIED. ) 
 GEOMETRIC_REPRESENTATION_ITEM ( )  RATIONAL_B_SPLINE_SURFACE ( (
 ( 1.000000000000000000, 0.9999493935339183200, 0.9999493935339183200, 1.000000000000000000),
 ( 0.9997951602113610600, 0.9997445641114971500, 0.9997445641114971500, 0.9997951602113610600),
 ( 0.9997951602113610600, 0.9997445641114971500, 0.9997445641114971500, 0.9997951602113610600),
 ( 1.000000000000000000, 0.9999493935339183200, 0.9999493935339183200, 1.000000000000000000) ) ) 
 REPRESENTATION_ITEM ( '' )  SURFACE ( )  );
#233 = PERSON_AND_ORGANIZATION ( #220, #34 ) ;
#234 = EDGE_CURVE ( 'NONE', #92, #30, #46, .T. ) ;
#235 = CYLINDRICAL_SURFACE ( 'NONE', #215, 25.39999999999999900 ) ;
ENDSEC;
END-ISO-10303-21;
