ISO-10303-21;
HEADER;
FILE_DESCRIPTION (( 'STEP AP203' ),
    '1' );
FILE_NAME ('110-0540E BK7 pl-cx 50.8 F1500.STEP',
    '2018-12-21T07:01:04',
    ( '' ),
    ( '' ),
    'SwSTEP 2.0',
    'SolidWorks 2017',
    '' );
FILE_SCHEMA (( 'CONFIG_CONTROL_DESIGN' ));
ENDSEC;

DATA;
#1 = DIRECTION ( 'NONE',  ( 0.0000000000000000000, 0.0000000000000000000, 1.000000000000000000 ) ) ;
#2 = CARTESIAN_POINT ( 'NONE',  ( 9.992007221626412800E-016, 4.884981308350691100E-015, 0.4146844642108050100 ) ) ;
#3 = CIRCLE ( 'NONE', #20, 25.39999999999999900 ) ;
#4 = EDGE_CURVE ( 'NONE', #201, #60, #46, .T. ) ;
#5 = ADVANCED_FACE ( 'NONE', ( #151 ), #143, .T. ) ;
#6 = CARTESIAN_POINT ( 'NONE',  ( 0.0000000000000000000, 0.0000000000000000000, 0.0000000000000000000 ) ) ;
#7 = SHAPE_DEFINITION_REPRESENTATION ( #197, #232 ) ;
#8 = EDGE_CURVE ( 'NONE', #159, #201, #56, .T. ) ;
#9 = FACE_OUTER_BOUND ( 'NONE', #177, .T. ) ;
#10 = CARTESIAN_POINT ( 'NONE',  ( -25.39999999999999900, 7.995584178184967200E-015, 5.000000000000000900 ) ) ;
#11 = CARTESIAN_POINT ( 'NONE',  ( -17.02827799084783000, -25.70468973100004800, 0.5645236302152578700 ) ) ;
#12 = LOCAL_TIME ( 9, 1, 4.000000000000000000, #45 ) ;
#13 = ORIENTED_EDGE ( 'NONE', *, *, #136, .F. ) ;
#14 = CARTESIAN_POINT ( 'NONE',  ( 25.55699596679259500, 8.571348802452492400, 0.2781347776129491400 ) ) ;
#15 = DESIGN_CONTEXT ( 'detailed design', #178, 'design' ) ;
#16 = ORIENTED_EDGE ( 'NONE', *, *, #38, .T. ) ;
#17 = AXIS2_PLACEMENT_3D ( 'NONE', #69, #1, #138 ) ;
#18 = CARTESIAN_POINT ( 'NONE',  ( -25.39999999999999900, 7.995584178184967200E-015, 0.4146844642108050100 ) ) ;
#19 = PERSON_AND_ORGANIZATION_ROLE ( 'design_owner' ) ;
#20 = AXIS2_PLACEMENT_3D ( 'NONE', #102, #233, #106 ) ;
#21 = PERSON_AND_ORGANIZATION ( #75, #61 ) ;
#22 = CARTESIAN_POINT ( 'NONE',  ( 25.53839859950018000, 25.70468973099990300, 0.8441417893294161900 ) ) ;
#23 = CC_DESIGN_PERSON_AND_ORGANIZATION_ASSIGNMENT ( #217, #153, ( #165 ) ) ;
#24 = CARTESIAN_POINT ( 'NONE',  ( 17.02827799084788700, -25.70468973100004100, 0.5645236302152327700 ) ) ;
#25 = CARTESIAN_POINT ( 'NONE',  ( 0.0000000000000000000, 52.02000000000000300, 5.000000000000000000 ) ) ;
#26 = DIRECTION ( 'NONE',  ( 0.0000000000000000000, 0.0000000000000000000, 1.000000000000000000 ) ) ;
#27 = UNCERTAINTY_MEASURE_WITH_UNIT (LENGTH_MEASURE( 1.000000000000000100E-005 ), #125, 'distance_accuracy_value', 'NONE');
#28 = COORDINATED_UNIVERSAL_TIME_OFFSET ( 2, 0, .AHEAD. ) ;
#29 = APPROVAL_PERSON_ORGANIZATION ( #141, #179, #71 ) ;
#30 = ORIENTED_EDGE ( 'NONE', *, *, #85, .F. ) ;
#31 = DIRECTION ( 'NONE',  ( 1.000000000000000000, 2.987644363226529900E-016, 2.581932769862619900E-016 ) ) ;
#32 = CALENDAR_DATE ( 2018, 21, 12 ) ;
#33 = PRODUCT_DEFINITION_FORMATION_WITH_SPECIFIED_SOURCE ( 'ANY', '', #218, .NOT_KNOWN. ) ;
#34 = CALENDAR_DATE ( 2018, 21, 12 ) ;
#35 = CIRCLE ( 'NONE', #188, 25.39999999999999900 ) ;
#36 = PRODUCT_DEFINITION ( 'UNKNOWN', '', #33, #15 ) ;
#37 = DATE_TIME_ROLE ( 'classification_date' ) ;
#38 = EDGE_CURVE ( 'NONE', #74, #159, #210, .T. ) ;
#39 = PERSON_AND_ORGANIZATION ( #75, #61 ) ;
#40 = SECURITY_CLASSIFICATION_LEVEL ( 'unclassified' ) ;
#41 = ORIENTED_EDGE ( 'NONE', *, *, #208, .F. ) ;
#42 = CARTESIAN_POINT ( 'NONE',  ( -25.39999999999999900, 7.995584178184967200E-015, 0.4146844642108050100 ) ) ;
#43 = APPLICATION_PROTOCOL_DEFINITION ( 'international standard', 'config_control_design', 1994, #120 ) ;
#44 = DIRECTION ( 'NONE',  ( -0.0000000000000000000, -0.0000000000000000000, -1.000000000000000000 ) ) ;
#45 = COORDINATED_UNIVERSAL_TIME_OFFSET ( 2, 0, .AHEAD. ) ;
#46 = LINE ( 'NONE', #212, #205 ) ;
#47 = CARTESIAN_POINT ( 'NONE',  ( 9.992007221626412800E-016, 4.884981308350691100E-015, 0.4146844642108050100 ) ) ;
#48 = ORIENTED_EDGE ( 'NONE', *, *, #4, .F. ) ;
#49 = AXIS2_PLACEMENT_3D ( 'NONE', #127, #164, #144 ) ;
#50 = CARTESIAN_POINT ( 'NONE',  ( 3.790004389705444700E-013, -25.70468973100004500, 0.4246956950265667900 ) ) ;
#51 = VERTEX_POINT ( 'NONE', #10 ) ;
#52 = CARTESIAN_POINT ( 'NONE',  ( 8.520913610824624800, -8.571348802452634500, -0.1416167623522280300 ) ) ;
#53 = CC_DESIGN_APPROVAL ( #202, ( #33 ) ) ;
#54 = CIRCLE ( 'NONE', #128, 25.39999999999999900 ) ;
#55 = APPROVAL ( #91, 'UNSPECIFIED' ) ;
#56 = CIRCLE ( 'NONE', #94, 25.39999999999999900 ) ;
#57 = COORDINATED_UNIVERSAL_TIME_OFFSET ( 2, 0, .AHEAD. ) ;
#58 = ORIENTED_EDGE ( 'NONE', *, *, #148, .F. ) ;
#59 = AXIS2_PLACEMENT_3D ( 'NONE', #47, #84, #129 ) ;
#60 = VERTEX_POINT ( 'NONE', #116 ) ;
#61 = ORGANIZATION ( 'UNSPECIFIED', 'UNSPECIFIED', '' ) ;
#62 = CARTESIAN_POINT ( 'NONE',  ( -25.55699596679281500, -8.571348802452641600, 0.2781347776129904400 ) ) ;
#63 = VECTOR ( 'NONE', #196, 1000.000000000000000 ) ;
#64 = DIRECTION ( 'NONE',  ( -0.0000000000000000000, -0.0000000000000000000, -1.000000000000000000 ) ) ;
#65 = DIRECTION ( 'NONE',  ( 1.000000000000000000, 0.0000000000000000000, 0.0000000000000000000 ) ) ;
#66 = ORIENTED_EDGE ( 'NONE', *, *, #4, .T. ) ;
#67 = CARTESIAN_POINT ( 'NONE',  ( 25.55699596679260200, -8.571348802452627400, 0.2781347776129509100 ) ) ;
#68 = CARTESIAN_POINT ( 'NONE',  ( 8.514713094915270700, -25.70468973100004100, 0.4246956950265690600 ) ) ;
#69 = CARTESIAN_POINT ( 'NONE',  ( 9.992007221626412800E-016, 4.884981308350691100E-015, 0.4146844642108050100 ) ) ;
#70 = APPROVAL_PERSON_ORGANIZATION ( #112, #55, #200 ) ;
#71 = APPROVAL_ROLE ( '' ) ;
#72 = EDGE_CURVE ( 'NONE', #60, #51, #54, .T. ) ;
#73 = APPROVAL_STATUS ( 'not_yet_approved' ) ;
#74 = VERTEX_POINT ( 'NONE', #115 ) ;
#75 = PERSON ( 'UNSPECIFIED', 'UNSPECIFIED', 'UNSPECIFIED', ('UNSPECIFIED'), ('UNSPECIFIED'), ('UNSPECIFIED') ) ;
#76 = CARTESIAN_POINT ( 'NONE',  ( 8.520913610824619500, 8.571348802452487100, -0.1416167623522298100 ) ) ;
#77 = PERSON_AND_ORGANIZATION ( #75, #61 ) ;
#78 = CC_DESIGN_PERSON_AND_ORGANIZATION_ASSIGNMENT ( #219, #220, ( #33 ) ) ;
#79 = APPROVAL_DATE_TIME ( #176, #179 ) ;
#80 = CIRCLE ( 'NONE', #49, 25.39999999999999900 ) ;
#81 = CC_DESIGN_PERSON_AND_ORGANIZATION_ASSIGNMENT ( #39, #19, ( #218 ) ) ;
#82 = LOCAL_TIME ( 9, 1, 4.000000000000000000, #28 ) ;
#83 = CARTESIAN_POINT ( 'NONE',  ( -8.520913610824324600, -8.571348802452636300, -0.1416167623521936700 ) ) ;
#84 = DIRECTION ( 'NONE',  ( 0.0000000000000000000, 0.0000000000000000000, 1.000000000000000000 ) ) ;
#85 = EDGE_CURVE ( 'NONE', #201, #74, #80, .T. ) ;
#86 = DIRECTION ( 'NONE',  ( 0.0000000000000000000, 0.0000000000000000000, 1.000000000000000000 ) ) ;
#87 = ORIENTED_EDGE ( 'NONE', *, *, #38, .F. ) ;
#88 = CARTESIAN_POINT ( 'NONE',  ( -25.55699596679281900, 8.571348802452481800, 0.2781347776129886600 ) ) ;
#89 = DATE_AND_TIME ( #146, #185 ) ;
#90 = ORIENTED_EDGE ( 'NONE', *, *, #140, .F. ) ;
#91 = APPROVAL_STATUS ( 'not_yet_approved' ) ;
#92 = CC_DESIGN_APPROVAL ( #55, ( #165 ) ) ;
#93 = CARTESIAN_POINT ( 'NONE',  ( 25.53839859950019400, -25.70468973100003800, 0.8441417893294161900 ) ) ;
#94 = AXIS2_PLACEMENT_3D ( 'NONE', #167, #64, #65 ) ;
#95 = AXIS2_PLACEMENT_3D ( 'NONE', #113, #31, #131 ) ;
#96 = APPROVAL_DATE_TIME ( #103, #55 ) ;
#97 = ORIENTED_EDGE ( 'NONE', *, *, #8, .T. ) ;
#98 = CARTESIAN_POINT ( 'NONE',  ( -8.520913610824328200, 8.571348802452487100, -0.1416167623521954500 ) ) ;
#99 = CARTESIAN_POINT ( 'NONE',  ( -17.02827799084784400, 25.70468973099989200, 0.5645236302152578700 ) ) ;
#100 = ORIENTED_EDGE ( 'NONE', *, *, #136, .T. ) ;
#101 =( BOUNDED_SURFACE ( )  B_SPLINE_SURFACE ( 3, 3, ( 
 ( #50, #68, #24, #93 ),
 ( #182, #52, #215, #67 ),
 ( #150, #76, #118, #14 ),
 ( #170, #204, #119, #22 ) ),
 .UNSPECIFIED., .F., .F., .F. ) 
 B_SPLINE_SURFACE_WITH_KNOTS ( ( 4, 4 ),
 ( 4, 4 ),
 ( 0.0000000000000000000, 1.000000000000000000 ),
 ( 0.0000000000000000000, 1.000000000000000000 ),
 .UNSPECIFIED. ) 
 GEOMETRIC_REPRESENTATION_ITEM ( )  RATIONAL_B_SPLINE_SURFACE ( (
 ( 1.000000000000000000, 0.9999101007891099100, 0.9999101007891099100, 1.000000000000000000),
 ( 0.9996361258664039400, 0.9995462593675112900, 0.9995462593675112900, 0.9996361258664039400),
 ( 0.9996361258664039400, 0.9995462593675112900, 0.9995462593675112900, 0.9996361258664039400),
 ( 1.000000000000000000, 0.9999101007891099100, 0.9999101007891099100, 1.000000000000000000) ) ) 
 REPRESENTATION_ITEM ( '' )  SURFACE ( )  );
#102 = CARTESIAN_POINT ( 'NONE',  ( 9.992007221626412800E-016, 4.884981308350691100E-015, 5.000000000000000900 ) ) ;
#103 = DATE_AND_TIME ( #157, #228 ) ;
#104 = ORIENTED_EDGE ( 'NONE', *, *, #148, .T. ) ;
#105 = ADVANCED_FACE ( 'NONE', ( #142 ), #216, .T. ) ;
#106 = DIRECTION ( 'NONE',  ( 1.000000000000000000, 0.0000000000000000000, 0.0000000000000000000 ) ) ;
#107 = CLOSED_SHELL ( 'NONE', ( #123, #160, #105, #5, #211 ) ) ;
#108 =( NAMED_UNIT ( * ) PLANE_ANGLE_UNIT ( ) SI_UNIT ( $, .RADIAN. ) );
#109 = DIRECTION ( 'NONE',  ( 1.000000000000000000, 0.0000000000000000000, 0.0000000000000000000 ) ) ;
#110 = CYLINDRICAL_SURFACE ( 'NONE', #17, 25.39999999999999900 ) ;
#111 = EDGE_LOOP ( 'NONE', ( #13, #41, #30, #66, #191 ) ) ;
#112 = PERSON_AND_ORGANIZATION ( #75, #61 ) ;
#113 = CARTESIAN_POINT ( 'NONE',  ( 1.705302565824239900E-013, -1.136868377216160000E-013, 778.1000000000000200 ) ) ;
#114 = FACE_OUTER_BOUND ( 'NONE', #135, .T. ) ;
#115 = CARTESIAN_POINT ( 'NONE',  ( 3.789119933472997500E-013, -25.39999999999929200, 0.4146844642107921900 ) ) ;
#116 = CARTESIAN_POINT ( 'NONE',  ( 25.39999999999999900, 4.884981308350691100E-015, 5.000000000000000900 ) ) ;
#117 = ORIENTED_EDGE ( 'NONE', *, *, #85, .T. ) ;
#118 = CARTESIAN_POINT ( 'NONE',  ( 17.04067818653435400, 8.571348802452490600, -0.001687002788857794100 ) ) ;
#119 = CARTESIAN_POINT ( 'NONE',  ( 17.02827799084787200, 25.70468973099989900, 0.5645236302152327700 ) ) ;
#120 = APPLICATION_CONTEXT ( 'configuration controlled 3d designs of mechanical parts and assemblies' ) ;
#121 = EDGE_LOOP ( 'NONE', ( #87, #213, #104 ) ) ;
#122 = MECHANICAL_CONTEXT ( 'NONE', #120, 'mechanical' ) ;
#123 = ADVANCED_FACE ( 'NONE', ( #9 ), #101, .T. ) ;
#124 = DIRECTION ( 'NONE',  ( 1.000000000000000000, 0.0000000000000000000, 0.0000000000000000000 ) ) ;
#125 =( LENGTH_UNIT ( ) NAMED_UNIT ( * ) SI_UNIT ( .MILLI., .METRE. ) );
#126 = VERTEX_POINT ( 'NONE', #18 ) ;
#127 = CARTESIAN_POINT ( 'NONE',  ( 9.992007221626412800E-016, 4.884981308350691100E-015, 0.4146844642108050100 ) ) ;
#128 = AXIS2_PLACEMENT_3D ( 'NONE', #229, #192, #214 ) ;
#129 = DIRECTION ( 'NONE',  ( 1.000000000000000000, 0.0000000000000000000, 0.0000000000000000000 ) ) ;
#130 = ORIENTED_EDGE ( 'NONE', *, *, #140, .T. ) ;
#131 = DIRECTION ( 'NONE',  ( 2.987644363226529900E-016, -1.000000000000000000, 0.0000000000000000000 ) ) ;
#132 = CARTESIAN_POINT ( 'NONE',  ( -25.53839859950040700, 25.70468973099988800, 0.8441417893294556100 ) ) ;
#133 = APPROVAL_STATUS ( 'not_yet_approved' ) ;
#134 = PERSON_AND_ORGANIZATION_ROLE ( 'creator' ) ;
#135 = EDGE_LOOP ( 'NONE', ( #169, #90 ) ) ;
#136 = EDGE_CURVE ( 'NONE', #126, #51, #221, .T. ) ;
#137 = CARTESIAN_POINT ( 'NONE',  ( 9.992007221626412800E-016, 4.884981308350691100E-015, 0.4146844642108050100 ) ) ;
#138 = DIRECTION ( 'NONE',  ( 1.000000000000000000, 0.0000000000000000000, 0.0000000000000000000 ) ) ;
#139 = PLANE ( 'NONE',  #171 ) ;
#140 = EDGE_CURVE ( 'NONE', #51, #60, #3, .T. ) ;
#141 = PERSON_AND_ORGANIZATION ( #75, #61 ) ;
#142 = FACE_OUTER_BOUND ( 'NONE', #121, .T. ) ;
#143 = CYLINDRICAL_SURFACE ( 'NONE', #59, 25.39999999999999900 ) ;
#144 = DIRECTION ( 'NONE',  ( 1.000000000000000000, 0.0000000000000000000, 0.0000000000000000000 ) ) ;
#145 = CARTESIAN_POINT ( 'NONE',  ( -8.514713094914959900, -25.70468973100004800, 0.4246956950266033100 ) ) ;
#146 = CALENDAR_DATE ( 2018, 21, 12 ) ;
#147 = CARTESIAN_POINT ( 'NONE',  ( 1.769417945496343200E-013, 8.571348802452487100, -0.1416167623521953100 ) ) ;
#148 = EDGE_CURVE ( 'NONE', #126, #159, #35, .T. ) ;
#149 = CARTESIAN_POINT ( 'NONE',  ( 1.873501354054951700E-013, -25.70468973100004500, 0.4246956950266034800 ) ) ;
#150 = CARTESIAN_POINT ( 'NONE',  ( 3.689061957078927000E-013, 8.571348802452485300, -0.1416167623522320000 ) ) ;
#151 = FACE_OUTER_BOUND ( 'NONE', #111, .T. ) ;
#152 = CARTESIAN_POINT ( 'NONE',  ( 3.637347599821094500E-013, 25.39999999999918100, 0.4146844642107921900 ) ) ;
#153 = PERSON_AND_ORGANIZATION_ROLE ( 'classification_officer' ) ;
#154 = COORDINATED_UNIVERSAL_TIME_OFFSET ( 2, 0, .AHEAD. ) ;
#155 = APPLICATION_PROTOCOL_DEFINITION ( 'international standard', 'config_control_design', 1994, #178 ) ;
#156 = CC_DESIGN_PERSON_AND_ORGANIZATION_ASSIGNMENT ( #21, #203, ( #36 ) ) ;
#157 = CALENDAR_DATE ( 2018, 21, 12 ) ;
#158 = DATE_TIME_ROLE ( 'creation_date' ) ;
#159 = VERTEX_POINT ( 'NONE', #152 ) ;
#160 = ADVANCED_FACE ( 'NONE', ( #195 ), #110, .T. ) ;
#161 = DATE_AND_TIME ( #34, #224 ) ;
#162 = AXIS2_PLACEMENT_3D ( 'NONE', #2, #44, #109 ) ;
#163 = CIRCLE ( 'NONE', #162, 25.39999999999999900 ) ;
#164 = DIRECTION ( 'NONE',  ( -0.0000000000000000000, -0.0000000000000000000, -1.000000000000000000 ) ) ;
#165 = SECURITY_CLASSIFICATION ( '', '', #40 ) ;
#166 = CARTESIAN_POINT ( 'NONE',  ( -25.53839859950039300, -25.70468973100005200, 0.8441417893294556100 ) ) ;
#167 = CARTESIAN_POINT ( 'NONE',  ( 9.992007221626412800E-016, 4.884981308350691100E-015, 0.4146844642108050100 ) ) ;
#168 = CALENDAR_DATE ( 2018, 21, 12 ) ;
#169 = ORIENTED_EDGE ( 'NONE', *, *, #72, .F. ) ;
#170 = CARTESIAN_POINT ( 'NONE',  ( 3.636411446938826600E-013, 25.70468973099989500, 0.4246956950265667900 ) ) ;
#171 = AXIS2_PLACEMENT_3D ( 'NONE', #25, #223, #184 ) ;
#172 = CARTESIAN_POINT ( 'NONE',  ( -8.514713094914974100, 25.70468973099989200, 0.4246956950266033100 ) ) ;
#173 = COORDINATED_UNIVERSAL_TIME_OFFSET ( 2, 0, .AHEAD. ) ;
#174 = DIRECTION ( 'NONE',  ( 1.000000000000000000, 0.0000000000000000000, 0.0000000000000000000 ) ) ;
#175 = APPROVAL_ROLE ( '' ) ;
#176 = DATE_AND_TIME ( #168, #82 ) ;
#177 = EDGE_LOOP ( 'NONE', ( #117, #16, #97 ) ) ;
#178 = APPLICATION_CONTEXT ( 'configuration controlled 3d designs of mechanical parts and assemblies' ) ;
#179 = APPROVAL ( #73, 'UNSPECIFIED' ) ;
#180 = DIRECTION ( 'NONE',  ( -0.0000000000000000000, -0.0000000000000000000, -1.000000000000000000 ) ) ;
#181 =( NAMED_UNIT ( * ) SI_UNIT ( $, .STERADIAN. ) SOLID_ANGLE_UNIT ( ) );
#182 = CARTESIAN_POINT ( 'NONE',  ( 3.740278240948718800E-013, -8.571348802452634500, -0.1416167623522302500 ) ) ;
#183 = MANIFOLD_SOLID_BREP ( 'Imported1', #107 ) ;
#184 = DIRECTION ( 'NONE',  ( 1.000000000000000000, 0.0000000000000000000, -0.0000000000000000000 ) ) ;
#185 = LOCAL_TIME ( 9, 1, 4.000000000000000000, #57 ) ;
#186 = CC_DESIGN_DATE_AND_TIME_ASSIGNMENT ( #89, #37, ( #165 ) ) ;
#187 = EDGE_LOOP ( 'NONE', ( #58, #100, #130, #48, #235 ) ) ;
#188 = AXIS2_PLACEMENT_3D ( 'NONE', #137, #180, #124 ) ;
#189 = CARTESIAN_POINT ( 'NONE',  ( -17.04067818653431800, -8.571348802452639900, -0.001687002788830959900 ) ) ;
#190 = CARTESIAN_POINT ( 'NONE',  ( -17.04067818653431800, 8.571348802452483500, -0.001687002788832640600 ) ) ;
#191 = ORIENTED_EDGE ( 'NONE', *, *, #72, .T. ) ;
#192 = DIRECTION ( 'NONE',  ( -0.0000000000000000000, -0.0000000000000000000, -1.000000000000000000 ) ) ;
#193 = AXIS2_PLACEMENT_3D ( 'NONE', #6, #26, #174 ) ;
#194 = CARTESIAN_POINT ( 'NONE',  ( 1.804112415015879100E-013, -8.571348802452634500, -0.1416167623521935900 ) ) ;
#195 = FACE_OUTER_BOUND ( 'NONE', #187, .T. ) ;
#196 = DIRECTION ( 'NONE',  ( 0.0000000000000000000, 0.0000000000000000000, 1.000000000000000000 ) ) ;
#197 = PRODUCT_DEFINITION_SHAPE ( 'NONE', 'NONE',  #36 ) ;
#198 = CARTESIAN_POINT ( 'NONE',  ( 25.39999999999999900, 4.884981308350691100E-015, 0.4146844642108050100 ) ) ;
#199 = PERSON_AND_ORGANIZATION ( #75, #61 ) ;
#200 = APPROVAL_ROLE ( '' ) ;
#201 = VERTEX_POINT ( 'NONE', #198 ) ;
#202 = APPROVAL ( #133, 'UNSPECIFIED' ) ;
#203 = PERSON_AND_ORGANIZATION_ROLE ( 'creator' ) ;
#204 = CARTESIAN_POINT ( 'NONE',  ( 8.514713094915256500, 25.70468973099989900, 0.4246956950265690600 ) ) ;
#205 = VECTOR ( 'NONE', #86, 1000.000000000000000 ) ;
#206 = CARTESIAN_POINT ( 'NONE',  ( 1.734723475976807100E-013, 25.70468973099989500, 0.4246956950266034800 ) ) ;
#207 =( GEOMETRIC_REPRESENTATION_CONTEXT ( 3 ) GLOBAL_UNCERTAINTY_ASSIGNED_CONTEXT ( ( #27 ) ) GLOBAL_UNIT_ASSIGNED_CONTEXT ( ( #125, #108, #181 ) ) REPRESENTATION_CONTEXT ( 'NONE', 'WORKASPACE' ) );
#208 = EDGE_CURVE ( 'NONE', #74, #126, #163, .T. ) ;
#209 = APPROVAL_PERSON_ORGANIZATION ( #77, #202, #175 ) ;
#210 = CIRCLE ( 'NONE', #95, 778.1000000000000200 ) ;
#211 = ADVANCED_FACE ( 'NONE', ( #114 ), #139, .T. ) ;
#212 = CARTESIAN_POINT ( 'NONE',  ( 25.39999999999999900, 4.884981308350691100E-015, 0.4146844642108050100 ) ) ;
#213 = ORIENTED_EDGE ( 'NONE', *, *, #208, .T. ) ;
#214 = DIRECTION ( 'NONE',  ( 1.000000000000000000, 0.0000000000000000000, 0.0000000000000000000 ) ) ;
#215 = CARTESIAN_POINT ( 'NONE',  ( 17.04067818653436100, -8.571348802452631000, -0.001687002788856059400 ) ) ;
#216 =( BOUNDED_SURFACE ( )  B_SPLINE_SURFACE ( 3, 3, ( 
 ( #166, #11, #145, #149 ),
 ( #62, #189, #83, #194 ),
 ( #88, #190, #98, #147 ),
 ( #132, #99, #172, #206 ) ),
 .UNSPECIFIED., .F., .F., .T. ) 
 B_SPLINE_SURFACE_WITH_KNOTS ( ( 4, 4 ),
 ( 4, 4 ),
 ( 0.0000000000000000000, 1.000000000000000000 ),
 ( 0.0000000000000000000, 1.000000000000000000 ),
 .UNSPECIFIED. ) 
 GEOMETRIC_REPRESENTATION_ITEM ( )  RATIONAL_B_SPLINE_SURFACE ( (
 ( 1.000000000000000000, 0.9999101007891099100, 0.9999101007891099100, 1.000000000000000000),
 ( 0.9996361258664039400, 0.9995462593675112900, 0.9995462593675112900, 0.9996361258664039400),
 ( 0.9996361258664039400, 0.9995462593675112900, 0.9995462593675112900, 0.9996361258664039400),
 ( 1.000000000000000000, 0.9999101007891099100, 0.9999101007891099100, 1.000000000000000000) ) ) 
 REPRESENTATION_ITEM ( '' )  SURFACE ( )  );
#217 = PERSON_AND_ORGANIZATION ( #75, #61 ) ;
#218 = PRODUCT ( '110-0540E BK7 pl-cx 50.8 F1500', '110-0540E BK7 pl-cx 50.8 F1500', '', ( #122 ) ) ;
#219 = PERSON_AND_ORGANIZATION ( #75, #61 ) ;
#220 = PERSON_AND_ORGANIZATION_ROLE ( 'design_supplier' ) ;
#221 = LINE ( 'NONE', #42, #63 ) ;
#222 = CC_DESIGN_APPROVAL ( #179, ( #36 ) ) ;
#223 = DIRECTION ( 'NONE',  ( 0.0000000000000000000, 0.0000000000000000000, 1.000000000000000000 ) ) ;
#224 = LOCAL_TIME ( 9, 1, 4.000000000000000000, #154 ) ;
#225 = CC_DESIGN_SECURITY_CLASSIFICATION ( #165, ( #33 ) ) ;
#226 = CC_DESIGN_DATE_AND_TIME_ASSIGNMENT ( #231, #158, ( #36 ) ) ;
#227 = APPROVAL_DATE_TIME ( #161, #202 ) ;
#228 = LOCAL_TIME ( 9, 1, 4.000000000000000000, #173 ) ;
#229 = CARTESIAN_POINT ( 'NONE',  ( 9.992007221626412800E-016, 4.884981308350691100E-015, 5.000000000000000900 ) ) ;
#230 = CC_DESIGN_PERSON_AND_ORGANIZATION_ASSIGNMENT ( #199, #134, ( #33 ) ) ;
#231 = DATE_AND_TIME ( #32, #12 ) ;
#232 = ADVANCED_BREP_SHAPE_REPRESENTATION ( '110-0540E BK7 pl-cx 50.8 F1500', ( #183, #193 ), #207 ) ;
#233 = DIRECTION ( 'NONE',  ( -0.0000000000000000000, -0.0000000000000000000, -1.000000000000000000 ) ) ;
#234 = PRODUCT_RELATED_PRODUCT_CATEGORY ( 'detail', '', ( #218 ) ) ;
#235 = ORIENTED_EDGE ( 'NONE', *, *, #8, .F. ) ;
ENDSEC;
END-ISO-10303-21;
