ISO-10303-21;
HEADER;
FILE_DESCRIPTION (( 'STEP AP203' ),
    '1' );
FILE_NAME ('110-0535E BK7 pl-cx 50.8 F1000.STEP',
    '2018-12-21T07:01:16',
    ( '' ),
    ( '' ),
    'SwSTEP 2.0',
    'SolidWorks 2017',
    '' );
FILE_SCHEMA (( 'CONFIG_CONTROL_DESIGN' ));
ENDSEC;

DATA;
#1 = AXIS2_PLACEMENT_3D ( 'NONE', #73, #172, #142 ) ;
#2 = CIRCLE ( 'NONE', #31, 518.7000000000000500 ) ;
#3 = EDGE_LOOP ( 'NONE', ( #35, #114, #22 ) ) ;
#4 = CARTESIAN_POINT ( 'NONE',  ( 0.0000000000000000000, 52.02000000000000300, 5.000000000000000000 ) ) ;
#5 = CARTESIAN_POINT ( 'NONE',  ( 8.511266638311799000, -25.70455173081839100, 0.6372952814325276700 ) ) ;
#6 = APPROVAL ( #41, 'UNSPECIFIED' ) ;
#7 = CARTESIAN_POINT ( 'NONE',  ( 9.456660289424940300E-014, 25.70455173081831600, 0.6372952814324150900 ) ) ;
#8 = CARTESIAN_POINT ( 'NONE',  ( -25.52088243373552600, 25.70455173081830900, 1.266283877711327200 ) ) ;
#9 = CARTESIAN_POINT ( 'NONE',  ( -8.511266638311751000, 25.70455173081831300, 0.6372952814324004400 ) ) ;
#10 = CIRCLE ( 'NONE', #125, 25.39999999999999900 ) ;
#11 = VERTEX_POINT ( 'NONE', #90 ) ;
#12 = CARTESIAN_POINT ( 'NONE',  ( -1.387778780781445700E-014, -25.70455173081839500, 0.6372952814325118000 ) ) ;
#13 = DIRECTION ( 'NONE',  ( 2.240877269159981100E-016, -1.000000000000000000, -4.280790532582056900E-016 ) ) ;
#14 = CARTESIAN_POINT ( 'NONE',  ( 9.992007221626412800E-016, 4.884981308350691100E-015, 0.6222741711433139600 ) ) ;
#15 = DIRECTION ( 'NONE',  ( 1.000000000000000000, 0.0000000000000000000, 0.0000000000000000000 ) ) ;
#16 = DATE_AND_TIME ( #216, #55 ) ;
#17 = APPROVAL_ROLE ( '' ) ;
#18 = DIRECTION ( 'NONE',  ( 1.000000000000000000, 0.0000000000000000000, 0.0000000000000000000 ) ) ;
#19 = SECURITY_CLASSIFICATION_LEVEL ( 'unclassified' ) ;
#20 = ADVANCED_FACE ( 'NONE', ( #196 ), #145, .T. ) ;
#21 = VERTEX_POINT ( 'NONE', #184 ) ;
#22 = ORIENTED_EDGE ( 'NONE', *, *, #63, .T. ) ;
#23 = APPROVAL ( #120, 'UNSPECIFIED' ) ;
#24 = COORDINATED_UNIVERSAL_TIME_OFFSET ( 2, 0, .AHEAD. ) ;
#25 = CC_DESIGN_PERSON_AND_ORGANIZATION_ASSIGNMENT ( #45, #79, ( #154 ) ) ;
#26 = ORIENTED_EDGE ( 'NONE', *, *, #95, .F. ) ;
#27 = CARTESIAN_POINT ( 'NONE',  ( 17.01994946663124300, -25.70455173081838800, 0.8470005877542667900 ) ) ;
#28 = PERSON ( 'UNSPECIFIED', 'UNSPECIFIED', 'UNSPECIFIED', ('UNSPECIFIED'), ('UNSPECIFIED'), ('UNSPECIFIED') ) ;
#29 = CARTESIAN_POINT ( 'NONE',  ( -25.39999999999999900, 7.995584178184967200E-015, 0.6222741711433139600 ) ) ;
#30 = LOCAL_TIME ( 9, 1, 16.00000000000000000, #182 ) ;
#31 = AXIS2_PLACEMENT_3D ( 'NONE', #144, #204, #13 ) ;
#32 = CARTESIAN_POINT ( 'NONE',  ( -17.01994946663120700, -25.70455173081839800, 0.8470005877542338100 ) ) ;
#33 = CARTESIAN_POINT ( 'NONE',  ( 9.992007221626412800E-016, 4.884981308350691100E-015, 5.000000000000000000 ) ) ;
#34 = CARTESIAN_POINT ( 'NONE',  ( -2.775557561562891000E-014, 8.575207802657464700, -0.2126059044782489500 ) ) ;
#35 = ORIENTED_EDGE ( 'NONE', *, *, #148, .F. ) ;
#36 = CARTESIAN_POINT ( 'NONE',  ( -8.525229688621328300, 8.575207802657466500, -0.2126059044782485100 ) ) ;
#37 = CC_DESIGN_PERSON_AND_ORGANIZATION_ASSIGNMENT ( #89, #99, ( #42 ) ) ;
#38 =( LENGTH_UNIT ( ) NAMED_UNIT ( * ) SI_UNIT ( .MILLI., .METRE. ) );
#39 = APPLICATION_CONTEXT ( 'configuration controlled 3d designs of mechanical parts and assemblies' ) ;
#40 = CALENDAR_DATE ( 2018, 21, 12 ) ;
#41 = APPROVAL_STATUS ( 'not_yet_approved' ) ;
#42 = SECURITY_CLASSIFICATION ( '', '', #19 ) ;
#43 = CIRCLE ( 'NONE', #183, 25.39999999999999900 ) ;
#44 = CALENDAR_DATE ( 2018, 21, 12 ) ;
#45 = PERSON_AND_ORGANIZATION ( #28, #127 ) ;
#46 = DIRECTION ( 'NONE',  ( -0.0000000000000000000, -0.0000000000000000000, -1.000000000000000000 ) ) ;
#47 = CC_DESIGN_DATE_AND_TIME_ASSIGNMENT ( #58, #175, ( #42 ) ) ;
#48 = CARTESIAN_POINT ( 'NONE',  ( 25.56275039305464200, -8.575207802657544700, 0.4174145710483162000 ) ) ;
#49 = CARTESIAN_POINT ( 'NONE',  ( 8.525229688621378100, -8.575207802657551800, -0.2126059044781239700 ) ) ;
#50 = CALENDAR_DATE ( 2018, 21, 12 ) ;
#51 = DIRECTION ( 'NONE',  ( -0.0000000000000000000, -0.0000000000000000000, -1.000000000000000000 ) ) ;
#52 = CARTESIAN_POINT ( 'NONE',  ( -3.122502256758252800E-014, 25.70455173081831600, 0.6372952814324001100 ) ) ;
#53 = DIRECTION ( 'NONE',  ( 1.000000000000000000, 0.0000000000000000000, 0.0000000000000000000 ) ) ;
#54 = EDGE_LOOP ( 'NONE', ( #121, #157 ) ) ;
#55 = LOCAL_TIME ( 9, 1, 16.00000000000000000, #132 ) ;
#56 = CARTESIAN_POINT ( 'NONE',  ( -25.39999999999999900, 7.995584178184967200E-015, 0.6222741711433139600 ) ) ;
#57 = APPLICATION_PROTOCOL_DEFINITION ( 'international standard', 'config_control_design', 1994, #39 ) ;
#58 = DATE_AND_TIME ( #92, #147 ) ;
#59 = DATE_TIME_ROLE ( 'creation_date' ) ;
#60 = AXIS2_PLACEMENT_3D ( 'NONE', #80, #232, #131 ) ;
#61 = CLOSED_SHELL ( 'NONE', ( #20, #197, #194, #235, #103 ) ) ;
#62 = ORIENTED_EDGE ( 'NONE', *, *, #95, .T. ) ;
#63 = EDGE_CURVE ( 'NONE', #134, #130, #143, .T. ) ;
#64 = DATE_AND_TIME ( #40, #122 ) ;
#65 = FACE_OUTER_BOUND ( 'NONE', #54, .T. ) ;
#66 = ORIENTED_EDGE ( 'NONE', *, *, #188, .F. ) ;
#67 = CARTESIAN_POINT ( 'NONE',  ( 8.511266638311790100, 25.70455173081832000, 0.6372952814324165400 ) ) ;
#68 = AXIS2_PLACEMENT_3D ( 'NONE', #170, #94, #129 ) ;
#69 = DIRECTION ( 'NONE',  ( 1.000000000000000000, 0.0000000000000000000, 0.0000000000000000000 ) ) ;
#70 = CARTESIAN_POINT ( 'NONE',  ( 17.04787132841375900, 8.575207802657473600, -0.002556568781455494400 ) ) ;
#71 = COORDINATED_UNIVERSAL_TIME_OFFSET ( 2, 0, .AHEAD. ) ;
#72 = CARTESIAN_POINT ( 'NONE',  ( 1.060867520317569200E-013, -25.70455173081839500, 0.6372952814325261200 ) ) ;
#73 = CARTESIAN_POINT ( 'NONE',  ( 9.992007221626412800E-016, 4.884981308350691100E-015, 0.6222741711433139600 ) ) ;
#74 = DIRECTION ( 'NONE',  ( 0.0000000000000000000, 0.0000000000000000000, 1.000000000000000000 ) ) ;
#75 = ORIENTED_EDGE ( 'NONE', *, *, #199, .T. ) ;
#76 = ORIENTED_EDGE ( 'NONE', *, *, #148, .T. ) ;
#77 = CARTESIAN_POINT ( 'NONE',  ( 9.463775814853029100E-014, 25.40000000000033300, 0.6222741711433346100 ) ) ;
#78 = CARTESIAN_POINT ( 'NONE',  ( -17.01994946663122800, 25.70455173081831300, 0.8470005877541229000 ) ) ;
#79 = PERSON_AND_ORGANIZATION_ROLE ( 'design_supplier' ) ;
#80 = CARTESIAN_POINT ( 'NONE',  ( 9.992007221626412800E-016, 4.884981308350691100E-015, 0.6222741711433139600 ) ) ;
#81 = PERSON_AND_ORGANIZATION ( #28, #127 ) ;
#82 = CYLINDRICAL_SURFACE ( 'NONE', #60, 25.39999999999999900 ) ;
#83 = VECTOR ( 'NONE', #113, 1000.000000000000000 ) ;
#84 = ORIENTED_EDGE ( 'NONE', *, *, #199, .F. ) ;
#85 = APPROVAL_PERSON_ORGANIZATION ( #222, #166, #231 ) ;
#86 = COORDINATED_UNIVERSAL_TIME_OFFSET ( 2, 0, .AHEAD. ) ;
#87 = CARTESIAN_POINT ( 'NONE',  ( 1.060214146758631500E-013, -25.40000000000032500, 0.6222741711433346100 ) ) ;
#88 = VERTEX_POINT ( 'NONE', #87 ) ;
#89 = PERSON_AND_ORGANIZATION ( #28, #127 ) ;
#90 = CARTESIAN_POINT ( 'NONE',  ( 25.39999999999999900, 4.884981308350691100E-015, 5.000000000000000000 ) ) ;
#91 = CC_DESIGN_APPROVAL ( #6, ( #209 ) ) ;
#92 = CALENDAR_DATE ( 2018, 21, 12 ) ;
#93 = CARTESIAN_POINT ( 'NONE',  ( 9.992007221626412800E-016, 4.884981308350691100E-015, 0.6222741711433139600 ) ) ;
#94 = DIRECTION ( 'NONE',  ( -0.0000000000000000000, -0.0000000000000000000, -1.000000000000000000 ) ) ;
#95 = EDGE_CURVE ( 'NONE', #130, #149, #234, .T. ) ;
#96 = FACE_OUTER_BOUND ( 'NONE', #3, .T. ) ;
#97 = CARTESIAN_POINT ( 'NONE',  ( -25.56275039305463900, -8.575207802657557100, 0.4174145710482845000 ) ) ;
#98 =( NAMED_UNIT ( * ) PLANE_ANGLE_UNIT ( ) SI_UNIT ( $, .RADIAN. ) );
#99 = PERSON_AND_ORGANIZATION_ROLE ( 'classification_officer' ) ;
#100 = APPLICATION_PROTOCOL_DEFINITION ( 'international standard', 'config_control_design', 1994, #116 ) ;
#101 = DATE_AND_TIME ( #50, #30 ) ;
#102 = PRODUCT_DEFINITION_SHAPE ( 'NONE', 'NONE',  #209 ) ;
#103 = ADVANCED_FACE ( 'NONE', ( #65 ), #220, .T. ) ;
#104 = LINE ( 'NONE', #208, #83 ) ;
#105 =( BOUNDED_SURFACE ( )  B_SPLINE_SURFACE ( 3, 3, ( 
 ( #126, #32, #206, #12 ),
 ( #97, #115, #158, #160 ),
 ( #156, #161, #36, #34 ),
 ( #8, #78, #9, #52 ) ),
 .UNSPECIFIED., .F., .F., .F. ) 
 B_SPLINE_SURFACE_WITH_KNOTS ( ( 4, 4 ),
 ( 4, 4 ),
 ( 0.0000000000000000000, 1.000000000000000000 ),
 ( 0.0000000000000000000, 1.000000000000000000 ),
 .UNSPECIFIED. ) 
 GEOMETRIC_REPRESENTATION_ITEM ( )  RATIONAL_B_SPLINE_SURFACE ( (
 ( 1.000000000000000000, 0.9997976164925818100, 0.9997976164925818100, 1.000000000000000000),
 ( 0.9991809070349817500, 0.9989786892984706700, 0.9989786892984706700, 0.9991809070349817500),
 ( 0.9991809070349817500, 0.9989786892984706700, 0.9989786892984706700, 0.9991809070349817500),
 ( 1.000000000000000000, 0.9997976164925818100, 0.9997976164925818100, 1.000000000000000000) ) ) 
 REPRESENTATION_ITEM ( '' )  SURFACE ( )  );
#106 = ORIENTED_EDGE ( 'NONE', *, *, #138, .T. ) ;
#107 = CARTESIAN_POINT ( 'NONE',  ( 25.39999999999999900, 4.884981308350691100E-015, 0.6222741711433139600 ) ) ;
#108 = CARTESIAN_POINT ( 'NONE',  ( 25.52088243373551500, -25.70455173081838800, 1.266283877711470000 ) ) ;
#109 = PERSON_AND_ORGANIZATION ( #28, #127 ) ;
#110 = PRODUCT ( '110-0535E BK7 pl-cx 50.8 F1000', '110-0535E BK7 pl-cx 50.8 F1000', '', ( #211 ) ) ;
#111 = CC_DESIGN_APPROVAL ( #23, ( #154 ) ) ;
#112 = ORIENTED_EDGE ( 'NONE', *, *, #188, .T. ) ;
#113 = DIRECTION ( 'NONE',  ( 0.0000000000000000000, 0.0000000000000000000, 1.000000000000000000 ) ) ;
#114 = ORIENTED_EDGE ( 'NONE', *, *, #213, .T. ) ;
#115 = CARTESIAN_POINT ( 'NONE',  ( -17.04787132841372700, -8.575207802657558900, -0.002556568781380088600 ) ) ;
#116 = APPLICATION_CONTEXT ( 'configuration controlled 3d designs of mechanical parts and assemblies' ) ;
#117 = AXIS2_PLACEMENT_3D ( 'NONE', #33, #210, #53 ) ;
#118 = APPROVAL_DATE_TIME ( #155, #23 ) ;
#119 = DIRECTION ( 'NONE',  ( 0.0000000000000000000, 0.0000000000000000000, 1.000000000000000000 ) ) ;
#120 = APPROVAL_STATUS ( 'not_yet_approved' ) ;
#121 = ORIENTED_EDGE ( 'NONE', *, *, #138, .F. ) ;
#122 = LOCAL_TIME ( 9, 1, 16.00000000000000000, #24 ) ;
#123 = CIRCLE ( 'NONE', #68, 25.39999999999999900 ) ;
#124 = APPROVAL_PERSON_ORGANIZATION ( #150, #23, #17 ) ;
#125 = AXIS2_PLACEMENT_3D ( 'NONE', #93, #189, #225 ) ;
#126 = CARTESIAN_POINT ( 'NONE',  ( -25.52088243373550500, -25.70455173081840200, 1.266283877711438200 ) ) ;
#127 = ORGANIZATION ( 'UNSPECIFIED', 'UNSPECIFIED', '' ) ;
#128 = ORIENTED_EDGE ( 'NONE', *, *, #213, .F. ) ;
#129 = DIRECTION ( 'NONE',  ( 1.000000000000000000, 0.0000000000000000000, 0.0000000000000000000 ) ) ;
#130 = VERTEX_POINT ( 'NONE', #77 ) ;
#131 = DIRECTION ( 'NONE',  ( 1.000000000000000000, 0.0000000000000000000, 0.0000000000000000000 ) ) ;
#132 = COORDINATED_UNIVERSAL_TIME_OFFSET ( 2, 0, .AHEAD. ) ;
#133 = DESIGN_CONTEXT ( 'detailed design', #39, 'design' ) ;
#134 = VERTEX_POINT ( 'NONE', #29 ) ;
#135 = CC_DESIGN_DATE_AND_TIME_ASSIGNMENT ( #16, #59, ( #209 ) ) ;
#136 = CARTESIAN_POINT ( 'NONE',  ( 9.992007221626412800E-016, 4.884981308350691100E-015, 0.6222741711433139600 ) ) ;
#137 = CYLINDRICAL_SURFACE ( 'NONE', #1, 25.39999999999999900 ) ;
#138 = EDGE_CURVE ( 'NONE', #11, #21, #215, .T. ) ;
#139 = CARTESIAN_POINT ( 'NONE',  ( 9.856966829428381600E-014, 8.575207802657466500, -0.2126059044782339600 ) ) ;
#140 = CARTESIAN_POINT ( 'NONE',  ( 25.52088243373551200, 25.70455173081832000, 1.266283877711359200 ) ) ;
#141 = LOCAL_TIME ( 9, 1, 16.00000000000000000, #71 ) ;
#142 = DIRECTION ( 'NONE',  ( 1.000000000000000000, 0.0000000000000000000, 0.0000000000000000000 ) ) ;
#143 = CIRCLE ( 'NONE', #152, 25.39999999999999900 ) ;
#144 = CARTESIAN_POINT ( 'NONE',  ( 0.0000000000000000000, 0.0000000000000000000, 518.7000000000000500 ) ) ;
#145 =( BOUNDED_SURFACE ( )  B_SPLINE_SURFACE ( 3, 3, ( 
 ( #72, #5, #27, #108 ),
 ( #153, #49, #224, #48 ),
 ( #139, #169, #70, #186 ),
 ( #7, #67, #203, #140 ) ),
 .UNSPECIFIED., .F., .F., .F. ) 
 B_SPLINE_SURFACE_WITH_KNOTS ( ( 4, 4 ),
 ( 4, 4 ),
 ( 0.0000000000000000000, 1.000000000000000000 ),
 ( 0.0000000000000000000, 1.000000000000000000 ),
 .UNSPECIFIED. ) 
 GEOMETRIC_REPRESENTATION_ITEM ( )  RATIONAL_B_SPLINE_SURFACE ( (
 ( 1.000000000000000000, 0.9997976164925818100, 0.9997976164925818100, 1.000000000000000000),
 ( 0.9991809070349817500, 0.9989786892984706700, 0.9989786892984706700, 0.9991809070349817500),
 ( 0.9991809070349817500, 0.9989786892984706700, 0.9989786892984706700, 0.9991809070349817500),
 ( 1.000000000000000000, 0.9997976164925818100, 0.9997976164925818100, 1.000000000000000000) ) ) 
 REPRESENTATION_ITEM ( '' )  SURFACE ( )  );
#146 =( GEOMETRIC_REPRESENTATION_CONTEXT ( 3 ) GLOBAL_UNCERTAINTY_ASSIGNED_CONTEXT ( ( #201 ) ) GLOBAL_UNIT_ASSIGNED_CONTEXT ( ( #38, #98, #176 ) ) REPRESENTATION_CONTEXT ( 'NONE', 'WORKASPACE' ) );
#147 = LOCAL_TIME ( 9, 1, 16.00000000000000000, #86 ) ;
#148 = EDGE_CURVE ( 'NONE', #88, #130, #2, .T. ) ;
#149 = VERTEX_POINT ( 'NONE', #107 ) ;
#150 = PERSON_AND_ORGANIZATION ( #28, #127 ) ;
#151 = ADVANCED_BREP_SHAPE_REPRESENTATION ( '110-0535E BK7 pl-cx 50.8 F1000', ( #229, #162 ), #146 ) ;
#152 = AXIS2_PLACEMENT_3D ( 'NONE', #136, #46, #69 ) ;
#153 = CARTESIAN_POINT ( 'NONE',  ( 1.024128659429435000E-013, -8.575207802657550000, -0.2126059044781255500 ) ) ;
#154 = PRODUCT_DEFINITION_FORMATION_WITH_SPECIFIED_SOURCE ( 'ANY', '', #110, .NOT_KNOWN. ) ;
#155 = DATE_AND_TIME ( #44, #141 ) ;
#156 = CARTESIAN_POINT ( 'NONE',  ( -25.56275039305465300, 8.575207802657461200, 0.4174145710481759200 ) ) ;
#157 = ORIENTED_EDGE ( 'NONE', *, *, #177, .F. ) ;
#158 = CARTESIAN_POINT ( 'NONE',  ( -8.525229688621317700, -8.575207802657557100, -0.2126059044781396500 ) ) ;
#159 = EDGE_LOOP ( 'NONE', ( #214, #75, #185, #66, #26 ) ) ;
#160 = CARTESIAN_POINT ( 'NONE',  ( -1.734723475976806800E-014, -8.575207802657551800, -0.2126059044781399800 ) ) ;
#161 = CARTESIAN_POINT ( 'NONE',  ( -17.04787132841374100, 8.575207802657464700, -0.002556568781488616800 ) ) ;
#162 = AXIS2_PLACEMENT_3D ( 'NONE', #212, #119, #18 ) ;
#163 = PERSON_AND_ORGANIZATION_ROLE ( 'design_owner' ) ;
#164 = PERSON_AND_ORGANIZATION_ROLE ( 'creator' ) ;
#165 = APPROVAL_ROLE ( '' ) ;
#166 = APPROVAL ( #191, 'UNSPECIFIED' ) ;
#167 = VECTOR ( 'NONE', #192, 1000.000000000000000 ) ;
#168 = APPROVAL_PERSON_ORGANIZATION ( #198, #6, #165 ) ;
#169 = CARTESIAN_POINT ( 'NONE',  ( 8.525229688621376300, 8.575207802657471800, -0.2126059044782323800 ) ) ;
#170 = CARTESIAN_POINT ( 'NONE',  ( 9.992007221626412800E-016, 4.884981308350691100E-015, 5.000000000000000000 ) ) ;
#171 = EDGE_CURVE ( 'NONE', #149, #88, #10, .T. ) ;
#172 = DIRECTION ( 'NONE',  ( 0.0000000000000000000, 0.0000000000000000000, 1.000000000000000000 ) ) ;
#173 = FACE_OUTER_BOUND ( 'NONE', #205, .T. ) ;
#174 = DIRECTION ( 'NONE',  ( 1.000000000000000000, 0.0000000000000000000, -0.0000000000000000000 ) ) ;
#175 = DATE_TIME_ROLE ( 'classification_date' ) ;
#176 =( NAMED_UNIT ( * ) SI_UNIT ( $, .STERADIAN. ) SOLID_ANGLE_UNIT ( ) );
#177 = EDGE_CURVE ( 'NONE', #21, #11, #123, .T. ) ;
#178 = CC_DESIGN_PERSON_AND_ORGANIZATION_ASSIGNMENT ( #217, #164, ( #209 ) ) ;
#179 = PRODUCT_RELATED_PRODUCT_CATEGORY ( 'detail', '', ( #110 ) ) ;
#180 = ORIENTED_EDGE ( 'NONE', *, *, #171, .T. ) ;
#181 = AXIS2_PLACEMENT_3D ( 'NONE', #4, #74, #174 ) ;
#182 = COORDINATED_UNIVERSAL_TIME_OFFSET ( 2, 0, .AHEAD. ) ;
#183 = AXIS2_PLACEMENT_3D ( 'NONE', #14, #51, #15 ) ;
#184 = CARTESIAN_POINT ( 'NONE',  ( -25.39999999999999900, 7.995584178184967200E-015, 5.000000000000000000 ) ) ;
#185 = ORIENTED_EDGE ( 'NONE', *, *, #177, .T. ) ;
#186 = CARTESIAN_POINT ( 'NONE',  ( 25.56275039305464600, 8.575207802657471800, 0.4174145710482078900 ) ) ;
#187 = APPROVAL_DATE_TIME ( #101, #166 ) ;
#188 = EDGE_CURVE ( 'NONE', #149, #11, #104, .T. ) ;
#189 = DIRECTION ( 'NONE',  ( -0.0000000000000000000, -0.0000000000000000000, -1.000000000000000000 ) ) ;
#190 = DIRECTION ( 'NONE',  ( 1.000000000000000000, 0.0000000000000000000, 0.0000000000000000000 ) ) ;
#191 = APPROVAL_STATUS ( 'not_yet_approved' ) ;
#192 = DIRECTION ( 'NONE',  ( 0.0000000000000000000, 0.0000000000000000000, 1.000000000000000000 ) ) ;
#193 = CC_DESIGN_PERSON_AND_ORGANIZATION_ASSIGNMENT ( #81, #163, ( #110 ) ) ;
#194 = ADVANCED_FACE ( 'NONE', ( #96 ), #105, .T. ) ;
#195 = FACE_OUTER_BOUND ( 'NONE', #159, .T. ) ;
#196 = FACE_OUTER_BOUND ( 'NONE', #200, .T. ) ;
#197 = ADVANCED_FACE ( 'NONE', ( #195 ), #137, .T. ) ;
#198 = PERSON_AND_ORGANIZATION ( #28, #127 ) ;
#199 = EDGE_CURVE ( 'NONE', #134, #21, #221, .T. ) ;
#200 = EDGE_LOOP ( 'NONE', ( #180, #76, #62 ) ) ;
#201 = UNCERTAINTY_MEASURE_WITH_UNIT (LENGTH_MEASURE( 1.000000000000000100E-005 ), #38, 'distance_accuracy_value', 'NONE');
#202 = APPROVAL_DATE_TIME ( #64, #6 ) ;
#203 = CARTESIAN_POINT ( 'NONE',  ( 17.01994946663123500, 25.70455173081832400, 0.8470005877541559900 ) ) ;
#204 = DIRECTION ( 'NONE',  ( 1.000000000000000000, 2.240877269159980100E-016, 1.936574019886349900E-016 ) ) ;
#205 = EDGE_LOOP ( 'NONE', ( #84, #128, #230, #112, #106 ) ) ;
#206 = CARTESIAN_POINT ( 'NONE',  ( -8.511266638311733200, -25.70455173081839800, 0.6372952814325120200 ) ) ;
#207 = SHAPE_DEFINITION_REPRESENTATION ( #102, #151 ) ;
#208 = CARTESIAN_POINT ( 'NONE',  ( 25.39999999999999900, 4.884981308350691100E-015, 0.6222741711433139600 ) ) ;
#209 = PRODUCT_DEFINITION ( 'UNKNOWN', '', #154, #133 ) ;
#210 = DIRECTION ( 'NONE',  ( -0.0000000000000000000, -0.0000000000000000000, -1.000000000000000000 ) ) ;
#211 = MECHANICAL_CONTEXT ( 'NONE', #116, 'mechanical' ) ;
#212 = CARTESIAN_POINT ( 'NONE',  ( 0.0000000000000000000, 0.0000000000000000000, 0.0000000000000000000 ) ) ;
#213 = EDGE_CURVE ( 'NONE', #88, #134, #43, .T. ) ;
#214 = ORIENTED_EDGE ( 'NONE', *, *, #63, .F. ) ;
#215 = CIRCLE ( 'NONE', #117, 25.39999999999999900 ) ;
#216 = CALENDAR_DATE ( 2018, 21, 12 ) ;
#217 = PERSON_AND_ORGANIZATION ( #28, #127 ) ;
#218 = CC_DESIGN_APPROVAL ( #166, ( #42 ) ) ;
#219 = CC_DESIGN_PERSON_AND_ORGANIZATION_ASSIGNMENT ( #109, #233, ( #154 ) ) ;
#220 = PLANE ( 'NONE',  #181 ) ;
#221 = LINE ( 'NONE', #56, #167 ) ;
#222 = PERSON_AND_ORGANIZATION ( #28, #127 ) ;
#223 = CARTESIAN_POINT ( 'NONE',  ( 9.992007221626412800E-016, 4.884981308350691100E-015, 0.6222741711433139600 ) ) ;
#224 = CARTESIAN_POINT ( 'NONE',  ( 17.04787132841375600, -8.575207802657550000, -0.002556568781347020900 ) ) ;
#225 = DIRECTION ( 'NONE',  ( 1.000000000000000000, 0.0000000000000000000, 0.0000000000000000000 ) ) ;
#226 = AXIS2_PLACEMENT_3D ( 'NONE', #223, #227, #190 ) ;
#227 = DIRECTION ( 'NONE',  ( -0.0000000000000000000, -0.0000000000000000000, -1.000000000000000000 ) ) ;
#228 = CC_DESIGN_SECURITY_CLASSIFICATION ( #42, ( #154 ) ) ;
#229 = MANIFOLD_SOLID_BREP ( 'Imported1', #61 ) ;
#230 = ORIENTED_EDGE ( 'NONE', *, *, #171, .F. ) ;
#231 = APPROVAL_ROLE ( '' ) ;
#232 = DIRECTION ( 'NONE',  ( 0.0000000000000000000, 0.0000000000000000000, 1.000000000000000000 ) ) ;
#233 = PERSON_AND_ORGANIZATION_ROLE ( 'creator' ) ;
#234 = CIRCLE ( 'NONE', #226, 25.39999999999999900 ) ;
#235 = ADVANCED_FACE ( 'NONE', ( #173 ), #82, .T. ) ;
ENDSEC;
END-ISO-10303-21;
