ISO-10303-21;
HEADER;
FILE_DESCRIPTION (( 'STEP AP203' ),
    '1' );
FILE_NAME ('110-0531E BK7 pl-cx 50.8 F800.STEP',
    '2018-12-21T07:01:29',
    ( '' ),
    ( '' ),
    'SwSTEP 2.0',
    'SolidWorks 2017',
    '' );
FILE_SCHEMA (( 'CONFIG_CONTROL_DESIGN' ));
ENDSEC;

DATA;
#1 = CARTESIAN_POINT ( 'NONE',  ( -25.39999999999999900, 7.995584178184967200E-015, 0.7780305198672810000 ) ) ;
#2 = PERSON_AND_ORGANIZATION ( #205, #148 ) ;
#3 = ORIENTED_EDGE ( 'NONE', *, *, #213, .T. ) ;
#4 = APPROVAL_PERSON_ORGANIZATION ( #101, #158, #168 ) ;
#5 = EDGE_CURVE ( 'NONE', #200, #222, #191, .T. ) ;
#6 = APPROVAL_DATE_TIME ( #69, #201 ) ;
#7 = VERTEX_POINT ( 'NONE', #77 ) ;
#8 = CARTESIAN_POINT ( 'NONE',  ( 1.597607468683580100E-013, -8.579118714828633000, -0.2659435034004299400 ) ) ;
#9 = CARTESIAN_POINT ( 'NONE',  ( 5.551115123125782700E-014, -8.579118714828633000, -0.2659435034004687900 ) ) ;
#10 = FACE_OUTER_BOUND ( 'NONE', #119, .T. ) ;
#11 = DIRECTION ( 'NONE',  ( -0.0000000000000000000, -0.0000000000000000000, -1.000000000000000000 ) ) ;
#12 = DIRECTION ( 'NONE',  ( -0.0000000000000000000, -0.0000000000000000000, -1.000000000000000000 ) ) ;
#13 = APPROVAL_PERSON_ORGANIZATION ( #2, #137, #174 ) ;
#14 = AXIS2_PLACEMENT_3D ( 'NONE', #143, #180, #108 ) ;
#15 = PERSON_AND_ORGANIZATION ( #205, #148 ) ;
#16 = ORIENTED_EDGE ( 'NONE', *, *, #224, .F. ) ;
#17 = PERSON_AND_ORGANIZATION ( #205, #148 ) ;
#18 = DIRECTION ( 'NONE',  ( 0.0000000000000000000, 0.0000000000000000000, 1.000000000000000000 ) ) ;
#19 = VECTOR ( 'NONE', #215, 1000.000000000000000 ) ;
#20 = DIRECTION ( 'NONE',  ( -0.0000000000000000000, -0.0000000000000000000, -1.000000000000000000 ) ) ;
#21 = AXIS2_PLACEMENT_3D ( 'NONE', #38, #131, #156 ) ;
#22 = PERSON_AND_ORGANIZATION_ROLE ( 'classification_officer' ) ;
#23 = CARTESIAN_POINT ( 'NONE',  ( 9.992007221626412800E-016, 4.884981308350691100E-015, 0.7780305198672810000 ) ) ;
#24 = EDGE_CURVE ( 'NONE', #33, #106, #48, .T. ) ;
#25 = ORIENTED_EDGE ( 'NONE', *, *, #24, .F. ) ;
#26 = COORDINATED_UNIVERSAL_TIME_OFFSET ( 2, 0, .AHEAD. ) ;
#27 = CARTESIAN_POINT ( 'NONE',  ( 25.56858226064592900, 8.579118714828684500, 0.5219530120444014800 ) ) ;
#28 = SHAPE_DEFINITION_REPRESENTATION ( #170, #49 ) ;
#29 = CARTESIAN_POINT ( 'NONE',  ( 6.245004513516505500E-014, -25.70441194513395900, 0.7968092752605628900 ) ) ;
#30 = CARTESIAN_POINT ( 'NONE',  ( -25.56858226064627400, 8.579118714828672100, 0.5219530120443866000 ) ) ;
#31 = CARTESIAN_POINT ( 'NONE',  ( -17.05516154667515500, 8.579118714828672100, -0.003228235615242462800 ) ) ;
#32 = DATE_AND_TIME ( #44, #41 ) ;
#33 = VERTEX_POINT ( 'NONE', #223 ) ;
#34 = ORIENTED_EDGE ( 'NONE', *, *, #207, .F. ) ;
#35 = EDGE_CURVE ( 'NONE', #33, #7, #126, .T. ) ;
#36 = CARTESIAN_POINT ( 'NONE',  ( 5.684341886080800200E-014, 0.0000000000000000000, 415.0000000000000600 ) ) ;
#37 = CC_DESIGN_APPROVAL ( #158, ( #197 ) ) ;
#38 = CARTESIAN_POINT ( 'NONE',  ( 0.0000000000000000000, 0.0000000000000000000, 0.0000000000000000000 ) ) ;
#39 = CIRCLE ( 'NONE', #132, 25.39999999999999900 ) ;
#40 = EDGE_LOOP ( 'NONE', ( #121, #155, #58 ) ) ;
#41 = LOCAL_TIME ( 9, 1, 29.00000000000000000, #172 ) ;
#42 = AXIS2_PLACEMENT_3D ( 'NONE', #159, #18, #136 ) ;
#43 =( BOUNDED_SURFACE ( )  B_SPLINE_SURFACE ( 3, 3, ( 
 ( #225, #202, #62, #149 ),
 ( #8, #184, #80, #128 ),
 ( #204, #226, #127, #27 ),
 ( #186, #183, #228, #206 ) ),
 .UNSPECIFIED., .F., .F., .F. ) 
 B_SPLINE_SURFACE_WITH_KNOTS ( ( 4, 4 ),
 ( 4, 4 ),
 ( 0.0000000000000000000, 1.000000000000000000 ),
 ( 0.0000000000000000000, 1.000000000000000000 ),
 .UNSPECIFIED. ) 
 GEOMETRIC_REPRESENTATION_ITEM ( )  RATIONAL_B_SPLINE_SURFACE ( (
 ( 1.000000000000000000, 0.9996837033075151000, 0.9996837033075151000, 1.000000000000000000),
 ( 0.9987199850999829400, 0.9984040932719772100, 0.9984040932719772100, 0.9987199850999829400),
 ( 0.9987199850999829400, 0.9984040932719772100, 0.9984040932719772100, 0.9987199850999829400),
 ( 1.000000000000000000, 0.9996837033075151000, 0.9996837033075151000, 1.000000000000000000) ) ) 
 REPRESENTATION_ITEM ( '' )  SURFACE ( )  );
#44 = CALENDAR_DATE ( 2018, 21, 12 ) ;
#45 = DIRECTION ( 'NONE',  ( 0.0000000000000000000, 0.0000000000000000000, 1.000000000000000000 ) ) ;
#46 = FACE_OUTER_BOUND ( 'NONE', #163, .T. ) ;
#47 = PERSON_AND_ORGANIZATION ( #205, #148 ) ;
#48 = LINE ( 'NONE', #94, #122 ) ;
#49 = ADVANCED_BREP_SHAPE_REPRESENTATION ( '110-0531E BK7 pl-cx 50.8 F800', ( #85, #21 ), #203 ) ;
#50 = DATE_TIME_ROLE ( 'creation_date' ) ;
#51 = CARTESIAN_POINT ( 'NONE',  ( 9.992007221626412800E-016, 4.884981308350691100E-015, 5.000000000000000000 ) ) ;
#52 = APPROVAL_STATUS ( 'not_yet_approved' ) ;
#53 = CC_DESIGN_PERSON_AND_ORGANIZATION_ASSIGNMENT ( #93, #235, ( #67 ) ) ;
#54 = APPROVAL_STATUS ( 'not_yet_approved' ) ;
#55 = CALENDAR_DATE ( 2018, 21, 12 ) ;
#56 = EDGE_LOOP ( 'NONE', ( #179, #3, #76 ) ) ;
#57 = CC_DESIGN_DATE_AND_TIME_ASSIGNMENT ( #194, #50, ( #197 ) ) ;
#58 = ORIENTED_EDGE ( 'NONE', *, *, #5, .T. ) ;
#59 = ADVANCED_FACE ( 'NONE', ( #86 ), #43, .T. ) ;
#60 = AXIS2_PLACEMENT_3D ( 'NONE', #157, #12, #97 ) ;
#61 = ORIENTED_EDGE ( 'NONE', *, *, #35, .F. ) ;
#62 = CARTESIAN_POINT ( 'NONE',  ( 17.01151380573259100, -25.70441194513395500, 1.058852199490561500 ) ) ;
#63 = CARTESIAN_POINT ( 'NONE',  ( -8.507775138718932000, 25.70441194513400200, 0.7968092752605628900 ) ) ;
#64 = CARTESIAN_POINT ( 'NONE',  ( 25.39999999999999900, 4.884981308350691100E-015, 5.000000000000000000 ) ) ;
#65 = CC_DESIGN_APPROVAL ( #201, ( #189 ) ) ;
#66 = CARTESIAN_POINT ( 'NONE',  ( -17.01151380573272900, -25.70441194513396300, 1.058852199490526400 ) ) ;
#67 = PRODUCT ( '110-0531E BK7 pl-cx 50.8 F800', '110-0531E BK7 pl-cx 50.8 F800', '', ( #68 ) ) ;
#68 = MECHANICAL_CONTEXT ( 'NONE', #73, 'mechanical' ) ;
#69 = DATE_AND_TIME ( #115, #112 ) ;
#70 = CC_DESIGN_DATE_AND_TIME_ASSIGNMENT ( #138, #135, ( #99 ) ) ;
#71 = PERSON_AND_ORGANIZATION_ROLE ( 'design_supplier' ) ;
#72 = CYLINDRICAL_SURFACE ( 'NONE', #154, 25.39999999999999900 ) ;
#73 = APPLICATION_CONTEXT ( 'configuration controlled 3d designs of mechanical parts and assemblies' ) ;
#74 = ADVANCED_FACE ( 'NONE', ( #75 ), #185, .T. ) ;
#75 = FACE_OUTER_BOUND ( 'NONE', #40, .T. ) ;
#76 = ORIENTED_EDGE ( 'NONE', *, *, #199, .T. ) ;
#77 = CARTESIAN_POINT ( 'NONE',  ( 1.642192917811999600E-013, -25.40000000000005500, 0.7780305198672909900 ) ) ;
#78 = ORIENTED_EDGE ( 'NONE', *, *, #199, .F. ) ;
#79 = CARTESIAN_POINT ( 'NONE',  ( -17.01151380573274400, 25.70441194513400200, 1.058852199490526400 ) ) ;
#80 = CARTESIAN_POINT ( 'NONE',  ( 17.05516154667500200, -8.579118714828627600, -0.003228235615205058200 ) ) ;
#81 = CC_DESIGN_SECURITY_CLASSIFICATION ( #99, ( #189 ) ) ;
#82 = CARTESIAN_POINT ( 'NONE',  ( 5.204170427930421900E-014, 8.579118714828679200, -0.2659435034004705200 ) ) ;
#83 = LOCAL_TIME ( 9, 1, 29.00000000000000000, #95 ) ;
#84 = VERTEX_POINT ( 'NONE', #145 ) ;
#85 = MANIFOLD_SOLID_BREP ( 'Imported1', #153 ) ;
#86 = FACE_OUTER_BOUND ( 'NONE', #56, .T. ) ;
#87 = SECURITY_CLASSIFICATION_LEVEL ( 'unclassified' ) ;
#88 = APPLICATION_PROTOCOL_DEFINITION ( 'international standard', 'config_control_design', 1994, #73 ) ;
#89 = ORIENTED_EDGE ( 'NONE', *, *, #124, .T. ) ;
#90 = PERSON_AND_ORGANIZATION_ROLE ( 'creator' ) ;
#91 = FACE_OUTER_BOUND ( 'NONE', #187, .T. ) ;
#92 = ADVANCED_FACE ( 'NONE', ( #91 ), #208, .T. ) ;
#93 = PERSON_AND_ORGANIZATION ( #205, #148 ) ;
#94 = CARTESIAN_POINT ( 'NONE',  ( 25.39999999999999900, 4.884981308350691100E-015, 0.7780305198672810000 ) ) ;
#95 = COORDINATED_UNIVERSAL_TIME_OFFSET ( 2, 0, .AHEAD. ) ;
#96 = DIRECTION ( 'NONE',  ( 1.000000000000000000, 0.0000000000000000000, 0.0000000000000000000 ) ) ;
#97 = DIRECTION ( 'NONE',  ( 1.000000000000000000, -1.776356839400250500E-015, 0.0000000000000000000 ) ) ;
#98 = COORDINATED_UNIVERSAL_TIME_OFFSET ( 2, 0, .AHEAD. ) ;
#99 = SECURITY_CLASSIFICATION ( '', '', #87 ) ;
#100 = CARTESIAN_POINT ( 'NONE',  ( 9.992007221626412800E-016, 4.884981308350691100E-015, 5.000000000000000000 ) ) ;
#101 = PERSON_AND_ORGANIZATION ( #205, #148 ) ;
#102 = AXIS2_PLACEMENT_3D ( 'NONE', #229, #11, #96 ) ;
#103 =( NAMED_UNIT ( * ) SI_UNIT ( $, .STERADIAN. ) SOLID_ANGLE_UNIT ( ) );
#104 = PLANE ( 'NONE',  #42 ) ;
#105 = CALENDAR_DATE ( 2018, 21, 12 ) ;
#106 = VERTEX_POINT ( 'NONE', #64 ) ;
#107 = ORIENTED_EDGE ( 'NONE', *, *, #207, .T. ) ;
#108 = DIRECTION ( 'NONE',  ( 1.000000000000000000, 8.881784197001252300E-016, 0.0000000000000000000 ) ) ;
#109 = ADVANCED_FACE ( 'NONE', ( #46 ), #72, .T. ) ;
#110 = APPROVAL_DATE_TIME ( #32, #137 ) ;
#111 = CARTESIAN_POINT ( 'NONE',  ( -8.529604187532086700, -8.579118714828634800, -0.2659435034004686300 ) ) ;
#112 = LOCAL_TIME ( 9, 1, 29.00000000000000000, #230 ) ;
#113 = ORIENTED_EDGE ( 'NONE', *, *, #5, .F. ) ;
#114 = CARTESIAN_POINT ( 'NONE',  ( -25.50314688779897300, -25.70441194513396600, 1.582689398019754300 ) ) ;
#115 = CALENDAR_DATE ( 2018, 21, 12 ) ;
#116 = PERSON_AND_ORGANIZATION ( #205, #148 ) ;
#117 = APPLICATION_PROTOCOL_DEFINITION ( 'international standard', 'config_control_design', 1994, #233 ) ;
#118 = APPROVAL_ROLE ( '' ) ;
#119 = EDGE_LOOP ( 'NONE', ( #34, #134 ) ) ;
#120 = AXIS2_PLACEMENT_3D ( 'NONE', #100, #188, #212 ) ;
#121 = ORIENTED_EDGE ( 'NONE', *, *, #213, .F. ) ;
#122 = VECTOR ( 'NONE', #177, 1000.000000000000000 ) ;
#123 = AXIS2_PLACEMENT_3D ( 'NONE', #36, #169, #218 ) ;
#124 = EDGE_CURVE ( 'NONE', #84, #106, #139, .T. ) ;
#125 = DIRECTION ( 'NONE',  ( 0.0000000000000000000, 0.0000000000000000000, 1.000000000000000000 ) ) ;
#126 = CIRCLE ( 'NONE', #102, 25.39999999999999900 ) ;
#127 = CARTESIAN_POINT ( 'NONE',  ( 17.05516154667499500, 8.579118714828684500, -0.003228235615207008900 ) ) ;
#128 = CARTESIAN_POINT ( 'NONE',  ( 25.56858226064593600, -8.579118714828625900, 0.5219530120444035900 ) ) ;
#129 =( LENGTH_UNIT ( ) NAMED_UNIT ( * ) SI_UNIT ( .MILLI., .METRE. ) );
#130 = AXIS2_PLACEMENT_3D ( 'NONE', #181, #125, #164 ) ;
#131 = DIRECTION ( 'NONE',  ( 0.0000000000000000000, 0.0000000000000000000, 1.000000000000000000 ) ) ;
#132 = AXIS2_PLACEMENT_3D ( 'NONE', #23, #217, #195 ) ;
#133 = CARTESIAN_POINT ( 'NONE',  ( 1.499910926469168100E-013, 25.40000000000006300, 0.7780305198672909900 ) ) ;
#134 = ORIENTED_EDGE ( 'NONE', *, *, #124, .F. ) ;
#135 = DATE_TIME_ROLE ( 'classification_date' ) ;
#136 = DIRECTION ( 'NONE',  ( 1.000000000000000000, 0.0000000000000000000, -0.0000000000000000000 ) ) ;
#137 = APPROVAL ( #54, 'UNSPECIFIED' ) ;
#138 = DATE_AND_TIME ( #55, #190 ) ;
#139 = CIRCLE ( 'NONE', #120, 25.39999999999999900 ) ;
#140 = UNCERTAINTY_MEASURE_WITH_UNIT (LENGTH_MEASURE( 1.000000000000000100E-005 ), #129, 'distance_accuracy_value', 'NONE');
#141 = CC_DESIGN_PERSON_AND_ORGANIZATION_ASSIGNMENT ( #116, #196, ( #197 ) ) ;
#142 = ADVANCED_FACE ( 'NONE', ( #10 ), #104, .T. ) ;
#143 = CARTESIAN_POINT ( 'NONE',  ( 9.992007221626412800E-016, 4.884981308350691100E-015, 0.7780305198672810000 ) ) ;
#144 = CARTESIAN_POINT ( 'NONE',  ( 9.992007221626412800E-016, 4.884981308350691100E-015, 0.7780305198672810000 ) ) ;
#145 = CARTESIAN_POINT ( 'NONE',  ( -25.39999999999999900, 7.995584178184967200E-015, 5.000000000000000000 ) ) ;
#146 = CARTESIAN_POINT ( 'NONE',  ( -8.529604187532088500, 8.579118714828675600, -0.2659435034004703500 ) ) ;
#147 = PERSON_AND_ORGANIZATION ( #205, #148 ) ;
#148 = ORGANIZATION ( 'UNSPECIFIED', 'UNSPECIFIED', '' ) ;
#149 = CARTESIAN_POINT ( 'NONE',  ( 25.50314688779865000, -25.70441194513395500, 1.582689398019768900 ) ) ;
#150 = CARTESIAN_POINT ( 'NONE',  ( -25.50314688779898700, 25.70441194513399800, 1.582689398019754300 ) ) ;
#151 = CC_DESIGN_PERSON_AND_ORGANIZATION_ASSIGNMENT ( #47, #22, ( #99 ) ) ;
#152 = LOCAL_TIME ( 9, 1, 29.00000000000000000, #26 ) ;
#153 = CLOSED_SHELL ( 'NONE', ( #59, #92, #74, #109, #142 ) ) ;
#154 = AXIS2_PLACEMENT_3D ( 'NONE', #144, #45, #160 ) ;
#155 = ORIENTED_EDGE ( 'NONE', *, *, #224, .T. ) ;
#156 = DIRECTION ( 'NONE',  ( 1.000000000000000000, 0.0000000000000000000, 0.0000000000000000000 ) ) ;
#157 = CARTESIAN_POINT ( 'NONE',  ( 9.992007221626412800E-016, 4.884981308350691100E-015, 0.7780305198672810000 ) ) ;
#158 = APPROVAL ( #52, 'UNSPECIFIED' ) ;
#159 = CARTESIAN_POINT ( 'NONE',  ( 0.0000000000000000000, 52.02000000000000300, 5.000000000000000000 ) ) ;
#160 = DIRECTION ( 'NONE',  ( 1.000000000000000000, 0.0000000000000000000, 0.0000000000000000000 ) ) ;
#161 = APPROVAL_DATE_TIME ( #167, #158 ) ;
#162 = CARTESIAN_POINT ( 'NONE',  ( -8.507775138718917800, -25.70441194513396300, 0.7968092752605628900 ) ) ;
#163 = EDGE_LOOP ( 'NONE', ( #182, #16, #61, #214, #107 ) ) ;
#164 = DIRECTION ( 'NONE',  ( 1.000000000000000000, 0.0000000000000000000, 0.0000000000000000000 ) ) ;
#165 = CARTESIAN_POINT ( 'NONE',  ( -25.56858226064627000, -8.579118714828640100, 0.5219530120443886000 ) ) ;
#166 = CC_DESIGN_PERSON_AND_ORGANIZATION_ASSIGNMENT ( #15, #71, ( #189 ) ) ;
#167 = DATE_AND_TIME ( #221, #83 ) ;
#168 = APPROVAL_ROLE ( '' ) ;
#169 = DIRECTION ( 'NONE',  ( 1.000000000000000000, 2.800826601236830100E-016, 2.420484202686870100E-016 ) ) ;
#170 = PRODUCT_DEFINITION_SHAPE ( 'NONE', 'NONE',  #197 ) ;
#171 = APPROVAL_STATUS ( 'not_yet_approved' ) ;
#172 = COORDINATED_UNIVERSAL_TIME_OFFSET ( 2, 0, .AHEAD. ) ;
#173 = CIRCLE ( 'NONE', #123, 415.0000000000000600 ) ;
#174 = APPROVAL_ROLE ( '' ) ;
#175 = CC_DESIGN_PERSON_AND_ORGANIZATION_ASSIGNMENT ( #147, #90, ( #189 ) ) ;
#176 = AXIS2_PLACEMENT_3D ( 'NONE', #51, #20, #198 ) ;
#177 = DIRECTION ( 'NONE',  ( 0.0000000000000000000, 0.0000000000000000000, 1.000000000000000000 ) ) ;
#178 = CC_DESIGN_APPROVAL ( #137, ( #99 ) ) ;
#179 = ORIENTED_EDGE ( 'NONE', *, *, #35, .T. ) ;
#180 = DIRECTION ( 'NONE',  ( -0.0000000000000000000, -0.0000000000000000000, -1.000000000000000000 ) ) ;
#181 = CARTESIAN_POINT ( 'NONE',  ( 9.992007221626412800E-016, 4.884981308350691100E-015, 0.7780305198672810000 ) ) ;
#182 = ORIENTED_EDGE ( 'NONE', *, *, #192, .F. ) ;
#183 = CARTESIAN_POINT ( 'NONE',  ( 8.507775138718946200, 25.70441194513401200, 0.7968092752606036300 ) ) ;
#184 = CARTESIAN_POINT ( 'NONE',  ( 8.529604187532116900, -8.579118714828631200, -0.2659435034004279400 ) ) ;
#185 =( BOUNDED_SURFACE ( )  B_SPLINE_SURFACE ( 3, 3, ( 
 ( #114, #66, #162, #29 ),
 ( #165, #227, #111, #9 ),
 ( #30, #31, #146, #82 ),
 ( #150, #79, #63, #210 ) ),
 .UNSPECIFIED., .F., .F., .F. ) 
 B_SPLINE_SURFACE_WITH_KNOTS ( ( 4, 4 ),
 ( 4, 4 ),
 ( 0.0000000000000000000, 1.000000000000000000 ),
 ( 0.0000000000000000000, 1.000000000000000000 ),
 .UNSPECIFIED. ) 
 GEOMETRIC_REPRESENTATION_ITEM ( )  RATIONAL_B_SPLINE_SURFACE ( (
 ( 1.000000000000000000, 0.9996837033075151000, 0.9996837033075151000, 1.000000000000000000),
 ( 0.9987199850999829400, 0.9984040932719772100, 0.9984040932719772100, 0.9987199850999829400),
 ( 0.9987199850999829400, 0.9984040932719772100, 0.9984040932719772100, 0.9987199850999829400),
 ( 1.000000000000000000, 0.9996837033075151000, 0.9996837033075151000, 1.000000000000000000) ) ) 
 REPRESENTATION_ITEM ( '' )  SURFACE ( )  );
#186 = CARTESIAN_POINT ( 'NONE',  ( 1.499012867714727500E-013, 25.70441194513400500, 0.7968092752606015200 ) ) ;
#187 = EDGE_LOOP ( 'NONE', ( #113, #209, #89, #25, #78 ) ) ;
#188 = DIRECTION ( 'NONE',  ( -0.0000000000000000000, -0.0000000000000000000, -1.000000000000000000 ) ) ;
#189 = PRODUCT_DEFINITION_FORMATION_WITH_SPECIFIED_SOURCE ( 'ANY', '', #67, .NOT_KNOWN. ) ;
#190 = LOCAL_TIME ( 9, 1, 29.00000000000000000, #98 ) ;
#191 = CIRCLE ( 'NONE', #14, 25.39999999999999900 ) ;
#192 = EDGE_CURVE ( 'NONE', #200, #84, #234, .T. ) ;
#193 = CARTESIAN_POINT ( 'NONE',  ( -25.39999999999999900, 7.995584178184967200E-015, 0.7780305198672810000 ) ) ;
#194 = DATE_AND_TIME ( #105, #152 ) ;
#195 = DIRECTION ( 'NONE',  ( 1.000000000000000000, 0.0000000000000000000, 0.0000000000000000000 ) ) ;
#196 = PERSON_AND_ORGANIZATION_ROLE ( 'creator' ) ;
#197 = PRODUCT_DEFINITION ( 'UNKNOWN', '', #189, #232 ) ;
#198 = DIRECTION ( 'NONE',  ( 1.000000000000000000, 0.0000000000000000000, 0.0000000000000000000 ) ) ;
#199 = EDGE_CURVE ( 'NONE', #222, #33, #231, .T. ) ;
#200 = VERTEX_POINT ( 'NONE', #193 ) ;
#201 = APPROVAL ( #171, 'UNSPECIFIED' ) ;
#202 = CARTESIAN_POINT ( 'NONE',  ( 8.507775138718962200, -25.70441194513395500, 0.7968092752606036300 ) ) ;
#203 =( GEOMETRIC_REPRESENTATION_CONTEXT ( 3 ) GLOBAL_UNCERTAINTY_ASSIGNED_CONTEXT ( ( #140 ) ) GLOBAL_UNIT_ASSIGNED_CONTEXT ( ( #129, #216, #103 ) ) REPRESENTATION_CONTEXT ( 'NONE', 'WORKASPACE' ) );
#204 = CARTESIAN_POINT ( 'NONE',  ( 1.549550220860258500E-013, 8.579118714828679200, -0.2659435034004318800 ) ) ;
#205 = PERSON ( 'UNSPECIFIED', 'UNSPECIFIED', 'UNSPECIFIED', ('UNSPECIFIED'), ('UNSPECIFIED'), ('UNSPECIFIED') ) ;
#206 = CARTESIAN_POINT ( 'NONE',  ( 25.50314688779863900, 25.70441194513401200, 1.582689398019768900 ) ) ;
#207 = EDGE_CURVE ( 'NONE', #106, #84, #220, .T. ) ;
#208 = CYLINDRICAL_SURFACE ( 'NONE', #130, 25.39999999999999900 ) ;
#209 = ORIENTED_EDGE ( 'NONE', *, *, #192, .T. ) ;
#210 = CARTESIAN_POINT ( 'NONE',  ( 4.857225732735059900E-014, 25.70441194513400500, 0.7968092752605628900 ) ) ;
#211 = PRODUCT_RELATED_PRODUCT_CATEGORY ( 'detail', '', ( #67 ) ) ;
#212 = DIRECTION ( 'NONE',  ( 1.000000000000000000, 0.0000000000000000000, 0.0000000000000000000 ) ) ;
#213 = EDGE_CURVE ( 'NONE', #7, #222, #173, .T. ) ;
#214 = ORIENTED_EDGE ( 'NONE', *, *, #24, .T. ) ;
#215 = DIRECTION ( 'NONE',  ( 0.0000000000000000000, 0.0000000000000000000, 1.000000000000000000 ) ) ;
#216 =( NAMED_UNIT ( * ) PLANE_ANGLE_UNIT ( ) SI_UNIT ( $, .RADIAN. ) );
#217 = DIRECTION ( 'NONE',  ( -0.0000000000000000000, -0.0000000000000000000, -1.000000000000000000 ) ) ;
#218 = DIRECTION ( 'NONE',  ( 2.800826601236829100E-016, -1.000000000000000000, 0.0000000000000000000 ) ) ;
#219 = APPROVAL_PERSON_ORGANIZATION ( #17, #201, #118 ) ;
#220 = CIRCLE ( 'NONE', #176, 25.39999999999999900 ) ;
#221 = CALENDAR_DATE ( 2018, 21, 12 ) ;
#222 = VERTEX_POINT ( 'NONE', #133 ) ;
#223 = CARTESIAN_POINT ( 'NONE',  ( 25.39999999999999900, 4.884981308350691100E-015, 0.7780305198672810000 ) ) ;
#224 = EDGE_CURVE ( 'NONE', #7, #200, #39, .T. ) ;
#225 = CARTESIAN_POINT ( 'NONE',  ( 1.643000069204889500E-013, -25.70441194513395900, 0.7968092752606015200 ) ) ;
#226 = CARTESIAN_POINT ( 'NONE',  ( 8.529604187532111600, 8.579118714828680900, -0.2659435034004298800 ) ) ;
#227 = CARTESIAN_POINT ( 'NONE',  ( -17.05516154667515100, -8.579118714828638300, -0.003228235615240511200 ) ) ;
#228 = CARTESIAN_POINT ( 'NONE',  ( 17.01151380573257700, 25.70441194513401200, 1.058852199490561500 ) ) ;
#229 = CARTESIAN_POINT ( 'NONE',  ( 9.992007221626412800E-016, 4.884981308350691100E-015, 0.7780305198672810000 ) ) ;
#230 = COORDINATED_UNIVERSAL_TIME_OFFSET ( 2, 0, .AHEAD. ) ;
#231 = CIRCLE ( 'NONE', #60, 25.39999999999999900 ) ;
#232 = DESIGN_CONTEXT ( 'detailed design', #233, 'design' ) ;
#233 = APPLICATION_CONTEXT ( 'configuration controlled 3d designs of mechanical parts and assemblies' ) ;
#234 = LINE ( 'NONE', #1, #19 ) ;
#235 = PERSON_AND_ORGANIZATION_ROLE ( 'design_owner' ) ;
ENDSEC;
END-ISO-10303-21;
