ISO-10303-21;
HEADER;
FILE_DESCRIPTION (( 'STEP AP203' ),
    '1' );
FILE_NAME ('110-0529E BK7 pl-cx 50.8 F700.STEP',
    '2018-12-21T07:01:41',
    ( '' ),
    ( '' ),
    'SwSTEP 2.0',
    'SolidWorks 2017',
    '' );
FILE_SCHEMA (( 'CONFIG_CONTROL_DESIGN' ));
ENDSEC;

DATA;
#1 = LINE ( 'NONE', #114, #85 ) ;
#2 = EDGE_CURVE ( 'NONE', #166, #202, #168, .T. ) ;
#3 = CALENDAR_DATE ( 2018, 21, 12 ) ;
#4 = EDGE_LOOP ( 'NONE', ( #106, #164, #139, #112, #46 ) ) ;
#5 = CARTESIAN_POINT ( 'NONE',  ( 25.48804228021061000, 25.70429285027437400, 1.808899874644650700 ) ) ;
#6 = CC_DESIGN_DATE_AND_TIME_ASSIGNMENT ( #220, #13, ( #182 ) ) ;
#7 = DATE_AND_TIME ( #72, #91 ) ;
#8 = DIRECTION ( 'NONE',  ( 1.000000000000000000, 0.0000000000000000000, 0.0000000000000000000 ) ) ;
#9 = ORIENTED_EDGE ( 'NONE', *, *, #2, .F. ) ;
#10 = DIRECTION ( 'NONE',  ( 0.0000000000000000000, 0.0000000000000000000, 1.000000000000000000 ) ) ;
#11 = APPROVAL_ROLE ( '' ) ;
#12 = ORIENTED_EDGE ( 'NONE', *, *, #230, .T. ) ;
#13 = DATE_TIME_ROLE ( 'classification_date' ) ;
#14 = EDGE_CURVE ( 'NONE', #202, #166, #120, .T. ) ;
#15 = DIRECTION ( 'NONE',  ( 1.000000000000000000, 0.0000000000000000000, 0.0000000000000000000 ) ) ;
#16 = ORIENTED_EDGE ( 'NONE', *, *, #31, .T. ) ;
#17 = CC_DESIGN_DATE_AND_TIME_ASSIGNMENT ( #146, #158, ( #208 ) ) ;
#18 = VECTOR ( 'NONE', #10, 1000.000000000000000 ) ;
#19 = AXIS2_PLACEMENT_3D ( 'NONE', #169, #57, #130 ) ;
#20 = DIRECTION ( 'NONE',  ( -0.0000000000000000000, -0.0000000000000000000, -1.000000000000000000 ) ) ;
#21 = AXIS2_PLACEMENT_3D ( 'NONE', #203, #221, #173 ) ;
#22 = CARTESIAN_POINT ( 'NONE',  ( 25.48804228021061000, -25.70429285027436400, 1.808899874644650700 ) ) ;
#23 = COORDINATED_UNIVERSAL_TIME_OFFSET ( 2, 0, .AHEAD. ) ;
#24 = FACE_OUTER_BOUND ( 'NONE', #4, .T. ) ;
#25 = EDGE_LOOP ( 'NONE', ( #117, #38, #205 ) ) ;
#26 = CARTESIAN_POINT ( 'NONE',  ( -5.684341886080800900E-014, 8.582452316030519100, -0.3041626939224131300 ) ) ;
#27 = DIRECTION ( 'NONE',  ( 0.0000000000000000000, -1.000000000000000000, 0.0000000000000000000 ) ) ;
#28 = CARTESIAN_POINT ( 'NONE',  ( -8.533333229294401100, 8.582452316030519100, -0.3041626939223695000 ) ) ;
#29 = COORDINATED_UNIVERSAL_TIME_OFFSET ( 2, 0, .AHEAD. ) ;
#30 = ADVANCED_FACE ( 'NONE', ( #143 ), #96, .T. ) ;
#31 = EDGE_CURVE ( 'NONE', #109, #56, #75, .T. ) ;
#32 = PERSON_AND_ORGANIZATION_ROLE ( 'classification_officer' ) ;
#33 = CALENDAR_DATE ( 2018, 21, 12 ) ;
#34 = AXIS2_PLACEMENT_3D ( 'NONE', #74, #20, #40 ) ;
#35 = MANIFOLD_SOLID_BREP ( 'Imported1', #150 ) ;
#36 = FACE_OUTER_BOUND ( 'NONE', #25, .T. ) ;
#37 = DESIGN_CONTEXT ( 'detailed design', #197, 'design' ) ;
#38 = ORIENTED_EDGE ( 'NONE', *, *, #128, .T. ) ;
#39 = DIRECTION ( 'NONE',  ( 0.0000000000000000000, 0.0000000000000000000, 1.000000000000000000 ) ) ;
#40 = DIRECTION ( 'NONE',  ( 1.000000000000000000, 0.0000000000000000000, 0.0000000000000000000 ) ) ;
#41 = DIRECTION ( 'NONE',  ( 0.0000000000000000000, 0.0000000000000000000, 1.000000000000000000 ) ) ;
#42 = PERSON_AND_ORGANIZATION ( #124, #216 ) ;
#43 = APPROVAL ( #66, 'UNSPECIFIED' ) ;
#44 = CARTESIAN_POINT ( 'NONE',  ( 8.533333229294271400, -8.582452316030508400, -0.3041626939224154100 ) ) ;
#45 = COORDINATED_UNIVERSAL_TIME_OFFSET ( 2, 0, .AHEAD. ) ;
#46 = ORIENTED_EDGE ( 'NONE', *, *, #201, .F. ) ;
#47 = CARTESIAN_POINT ( 'NONE',  ( 0.0000000000000000000, 0.0000000000000000000, 0.0000000000000000000 ) ) ;
#48 = PERSON_AND_ORGANIZATION_ROLE ( 'creator' ) ;
#49 = LINE ( 'NONE', #59, #18 ) ;
#50 = ORIENTED_EDGE ( 'NONE', *, *, #14, .T. ) ;
#51 = ADVANCED_FACE ( 'NONE', ( #70 ), #183, .T. ) ;
#52 = EDGE_CURVE ( 'NONE', #175, #166, #49, .T. ) ;
#53 = APPROVAL_DATE_TIME ( #7, #194 ) ;
#54 = CC_DESIGN_PERSON_AND_ORGANIZATION_ASSIGNMENT ( #100, #122, ( #208 ) ) ;
#55 = CC_DESIGN_APPROVAL ( #43, ( #208 ) ) ;
#56 = VERTEX_POINT ( 'NONE', #223 ) ;
#57 = DIRECTION ( 'NONE',  ( -0.0000000000000000000, -0.0000000000000000000, -1.000000000000000000 ) ) ;
#58 =( BOUNDED_SURFACE ( )  B_SPLINE_SURFACE ( 3, 3, ( 
 ( #206, #115, #80, #99 ),
 ( #217, #121, #160, #196 ),
 ( #213, #161, #28, #231 ),
 ( #177, #64, #193, #105 ) ),
 .UNSPECIFIED., .F., .F., .T. ) 
 B_SPLINE_SURFACE_WITH_KNOTS ( ( 4, 4 ),
 ( 4, 4 ),
 ( 0.0000000000000000000, 1.000000000000000000 ),
 ( 0.0000000000000000000, 1.000000000000000000 ),
 .UNSPECIFIED. ) 
 GEOMETRIC_REPRESENTATION_ITEM ( )  RATIONAL_B_SPLINE_SURFACE ( (
 ( 1.000000000000000000, 0.9995866723652705500, 0.9995866723652705500, 1.000000000000000000),
 ( 0.9983274361751380800, 0.9979147998572582800, 0.9979147998572582800, 0.9983274361751380800),
 ( 0.9983274361751380800, 0.9979147998572582800, 0.9979147998572582800, 0.9983274361751380800),
 ( 1.000000000000000000, 0.9995866723652705500, 0.9995866723652705500, 1.000000000000000000) ) ) 
 REPRESENTATION_ITEM ( '' )  SURFACE ( )  );
#59 = CARTESIAN_POINT ( 'NONE',  ( -25.39999999999999900, 7.995584178184967200E-015, 0.8894949066220140300 ) ) ;
#60 = CARTESIAN_POINT ( 'NONE',  ( 17.00432726909590600, 25.70429285027436700, 1.210398315039324000 ) ) ;
#61 = EDGE_LOOP ( 'NONE', ( #235, #9 ) ) ;
#62 = CARTESIAN_POINT ( 'NONE',  ( -5.684341886080800200E-014, 2.842170943040400100E-014, 363.1000000000000200 ) ) ;
#63 = DIRECTION ( 'NONE',  ( 0.0000000000000000000, 0.0000000000000000000, 1.000000000000000000 ) ) ;
#64 = CARTESIAN_POINT ( 'NONE',  ( -17.00432726909597000, 25.70429285027436700, 1.210398315039345800 ) ) ;
#65 =( GEOMETRIC_REPRESENTATION_CONTEXT ( 3 ) GLOBAL_UNCERTAINTY_ASSIGNED_CONTEXT ( ( #134 ) ) GLOBAL_UNIT_ASSIGNED_CONTEXT ( ( #125, #180, #123 ) ) REPRESENTATION_CONTEXT ( 'NONE', 'WORKASPACE' ) );
#66 = APPROVAL_STATUS ( 'not_yet_approved' ) ;
#67 = ADVANCED_FACE ( 'NONE', ( #24 ), #234, .T. ) ;
#68 = PERSON_AND_ORGANIZATION_ROLE ( 'design_owner' ) ;
#69 = SECURITY_CLASSIFICATION_LEVEL ( 'unclassified' ) ;
#70 = FACE_OUTER_BOUND ( 'NONE', #186, .T. ) ;
#71 = CC_DESIGN_APPROVAL ( #142, ( #107 ) ) ;
#72 = CALENDAR_DATE ( 2018, 21, 12 ) ;
#73 = APPROVAL_PERSON_ORGANIZATION ( #126, #194, #229 ) ;
#74 = CARTESIAN_POINT ( 'NONE',  ( 9.992007221626412800E-016, 4.884981308350691100E-015, 5.000000000000000000 ) ) ;
#75 = CIRCLE ( 'NONE', #21, 25.39999999999999900 ) ;
#76 = DIRECTION ( 'NONE',  ( 1.000000000000000000, 0.0000000000000000000, 0.0000000000000000000 ) ) ;
#77 = CC_DESIGN_PERSON_AND_ORGANIZATION_ASSIGNMENT ( #225, #68, ( #219 ) ) ;
#78 = APPROVAL_DATE_TIME ( #127, #142 ) ;
#79 = CARTESIAN_POINT ( 'NONE',  ( -5.684341886080800200E-014, 25.39999999999979600, 0.8894949066220021500 ) ) ;
#80 = CARTESIAN_POINT ( 'NONE',  ( -8.504800086225671400, -25.70429285027436000, 0.9109618872110029100 ) ) ;
#81 = DIRECTION ( 'NONE',  ( 1.000000000000000000, 8.881784197001252300E-016, 0.0000000000000000000 ) ) ;
#82 = CARTESIAN_POINT ( 'NONE',  ( 9.992007221626412800E-016, 4.884981308350691100E-015, 0.8894949066220140300 ) ) ;
#83 = CALENDAR_DATE ( 2018, 21, 12 ) ;
#84 = CC_DESIGN_PERSON_AND_ORGANIZATION_ASSIGNMENT ( #218, #48, ( #107 ) ) ;
#85 = VECTOR ( 'NONE', #63, 1000.000000000000000 ) ;
#86 = APPLICATION_PROTOCOL_DEFINITION ( 'international standard', 'config_control_design', 1994, #197 ) ;
#87 = AXIS2_PLACEMENT_3D ( 'NONE', #62, #227, #27 ) ;
#88 = SHAPE_DEFINITION_REPRESENTATION ( #210, #232 ) ;
#89 = PERSON_AND_ORGANIZATION ( #124, #216 ) ;
#90 = AXIS2_PLACEMENT_3D ( 'NONE', #187, #135, #8 ) ;
#91 = LOCAL_TIME ( 9, 1, 41.00000000000000000, #23 ) ;
#92 = LOCAL_TIME ( 9, 1, 41.00000000000000000, #29 ) ;
#93 = ORIENTED_EDGE ( 'NONE', *, *, #31, .F. ) ;
#94 = CC_DESIGN_PERSON_AND_ORGANIZATION_ASSIGNMENT ( #188, #144, ( #107 ) ) ;
#95 = CARTESIAN_POINT ( 'NONE',  ( 8.504800086225538200, -25.70429285027436000, 0.9109618872109591600 ) ) ;
#96 = CYLINDRICAL_SURFACE ( 'NONE', #204, 25.39999999999999900 ) ;
#97 = CARTESIAN_POINT ( 'NONE',  ( -5.684341886080800900E-014, -8.582452316030508400, -0.3041626939224152900 ) ) ;
#98 = DIRECTION ( 'NONE',  ( -0.0000000000000000000, -0.0000000000000000000, -1.000000000000000000 ) ) ;
#99 = CARTESIAN_POINT ( 'NONE',  ( -1.457167719820518000E-013, -25.70429285027436400, 0.9109618872110010200 ) ) ;
#100 = PERSON_AND_ORGANIZATION ( #124, #216 ) ;
#101 = CARTESIAN_POINT ( 'NONE',  ( 17.06137586492856400, 8.582452316030519100, -0.003721673117306400700 ) ) ;
#102 = CARTESIAN_POINT ( 'NONE',  ( 9.992007221626412800E-016, 4.884981308350691100E-015, 0.8894949066220140300 ) ) ;
#103 = APPLICATION_PROTOCOL_DEFINITION ( 'international standard', 'config_control_design', 1994, #176 ) ;
#104 = AXIS2_PLACEMENT_3D ( 'NONE', #207, #98, #226 ) ;
#105 = CARTESIAN_POINT ( 'NONE',  ( -1.457167719820518000E-013, 25.70429285027437400, 0.9109618872110010200 ) ) ;
#106 = ORIENTED_EDGE ( 'NONE', *, *, #113, .F. ) ;
#107 = PRODUCT_DEFINITION_FORMATION_WITH_SPECIFIED_SOURCE ( 'ANY', '', #219, .NOT_KNOWN. ) ;
#108 = CC_DESIGN_PERSON_AND_ORGANIZATION_ASSIGNMENT ( #89, #32, ( #182 ) ) ;
#109 = VERTEX_POINT ( 'NONE', #190 ) ;
#110 = AXIS2_PLACEMENT_3D ( 'NONE', #47, #215, #15 ) ;
#111 = CIRCLE ( 'NONE', #104, 25.39999999999999900 ) ;
#112 = ORIENTED_EDGE ( 'NONE', *, *, #148, .F. ) ;
#113 = EDGE_CURVE ( 'NONE', #175, #151, #209, .T. ) ;
#114 = CARTESIAN_POINT ( 'NONE',  ( 25.39999999999999900, 4.884981308350691100E-015, 0.8894949066220140300 ) ) ;
#115 = CARTESIAN_POINT ( 'NONE',  ( -17.00432726909597000, -25.70429285027436000, 1.210398315039345800 ) ) ;
#116 = FACE_OUTER_BOUND ( 'NONE', #61, .T. ) ;
#117 = ORIENTED_EDGE ( 'NONE', *, *, #230, .F. ) ;
#118 = CARTESIAN_POINT ( 'NONE',  ( 17.00432726909590600, -25.70429285027436000, 1.210398315039324000 ) ) ;
#119 = CARTESIAN_POINT ( 'NONE',  ( 25.39999999999999900, 4.884981308350691100E-015, 5.000000000000000000 ) ) ;
#120 = CIRCLE ( 'NONE', #34, 25.39999999999999900 ) ;
#121 = CARTESIAN_POINT ( 'NONE',  ( -17.06137586492862800, -8.582452316030508400, -0.003721673117286993900 ) ) ;
#122 = PERSON_AND_ORGANIZATION_ROLE ( 'creator' ) ;
#123 =( NAMED_UNIT ( * ) SI_UNIT ( $, .STERADIAN. ) SOLID_ANGLE_UNIT ( ) );
#124 = PERSON ( 'UNSPECIFIED', 'UNSPECIFIED', 'UNSPECIFIED', ('UNSPECIFIED'), ('UNSPECIFIED'), ('UNSPECIFIED') ) ;
#125 =( LENGTH_UNIT ( ) NAMED_UNIT ( * ) SI_UNIT ( .MILLI., .METRE. ) );
#126 = PERSON_AND_ORGANIZATION ( #124, #216 ) ;
#127 = DATE_AND_TIME ( #174, #131 ) ;
#128 = EDGE_CURVE ( 'NONE', #56, #175, #184, .T. ) ;
#129 = LOCAL_TIME ( 9, 1, 41.00000000000000000, #179 ) ;
#130 = DIRECTION ( 'NONE',  ( 1.000000000000000000, 0.0000000000000000000, 0.0000000000000000000 ) ) ;
#131 = LOCAL_TIME ( 9, 1, 41.00000000000000000, #45 ) ;
#132 = CARTESIAN_POINT ( 'NONE',  ( 9.992007221626412800E-016, 4.884981308350691100E-015, 0.8894949066220140300 ) ) ;
#133 = ORIENTED_EDGE ( 'NONE', *, *, #201, .T. ) ;
#134 = UNCERTAINTY_MEASURE_WITH_UNIT (LENGTH_MEASURE( 1.000000000000000100E-005 ), #125, 'distance_accuracy_value', 'NONE');
#135 = DIRECTION ( 'NONE',  ( 0.0000000000000000000, 0.0000000000000000000, 1.000000000000000000 ) ) ;
#136 = CARTESIAN_POINT ( 'NONE',  ( 17.06137586492856400, -8.582452316030508400, -0.003721673117308569100 ) ) ;
#137 = DIRECTION ( 'NONE',  ( 1.000000000000000000, 8.881784197001252300E-016, 0.0000000000000000000 ) ) ;
#138 = PERSON_AND_ORGANIZATION ( #124, #216 ) ;
#139 = ORIENTED_EDGE ( 'NONE', *, *, #2, .T. ) ;
#140 = CARTESIAN_POINT ( 'NONE',  ( 25.57355327982845200, -8.582452316030508400, 0.5967878267633849300 ) ) ;
#141 = APPROVAL_STATUS ( 'not_yet_approved' ) ;
#142 = APPROVAL ( #145, 'UNSPECIFIED' ) ;
#143 = FACE_OUTER_BOUND ( 'NONE', #159, .T. ) ;
#144 = PERSON_AND_ORGANIZATION_ROLE ( 'design_supplier' ) ;
#145 = APPROVAL_STATUS ( 'not_yet_approved' ) ;
#146 = DATE_AND_TIME ( #83, #181 ) ;
#147 = ORIENTED_EDGE ( 'NONE', *, *, #52, .F. ) ;
#148 = EDGE_CURVE ( 'NONE', #109, #202, #1, .T. ) ;
#149 = DATE_AND_TIME ( #3, #92 ) ;
#150 = CLOSED_SHELL ( 'NONE', ( #51, #67, #233, #30, #163 ) ) ;
#151 = VERTEX_POINT ( 'NONE', #79 ) ;
#152 = CC_DESIGN_APPROVAL ( #194, ( #182 ) ) ;
#153 = CARTESIAN_POINT ( 'NONE',  ( 0.0000000000000000000, 52.02000000000000300, 5.000000000000000000 ) ) ;
#154 = DIRECTION ( 'NONE',  ( -0.0000000000000000000, -0.0000000000000000000, -1.000000000000000000 ) ) ;
#155 = PRODUCT_RELATED_PRODUCT_CATEGORY ( 'detail', '', ( #219 ) ) ;
#156 = CARTESIAN_POINT ( 'NONE',  ( -25.39999999999999900, 7.995584178184967200E-015, 5.000000000000000000 ) ) ;
#157 = CARTESIAN_POINT ( 'NONE',  ( 8.504800086225538200, 25.70429285027436700, 0.9109618872109591600 ) ) ;
#158 = DATE_TIME_ROLE ( 'creation_date' ) ;
#159 = EDGE_LOOP ( 'NONE', ( #147, #200, #93, #214, #50 ) ) ;
#160 = CARTESIAN_POINT ( 'NONE',  ( -8.533333229294404600, -8.582452316030508400, -0.3041626939223715500 ) ) ;
#161 = CARTESIAN_POINT ( 'NONE',  ( -17.06137586492862500, 8.582452316030519100, -0.003721673117284825100 ) ) ;
#162 = AXIS2_PLACEMENT_3D ( 'NONE', #102, #154, #81 ) ;
#163 = ADVANCED_FACE ( 'NONE', ( #116 ), #189, .T. ) ;
#164 = ORIENTED_EDGE ( 'NONE', *, *, #52, .T. ) ;
#165 = AXIS2_PLACEMENT_3D ( 'NONE', #82, #212, #137 ) ;
#166 = VERTEX_POINT ( 'NONE', #156 ) ;
#167 = AXIS2_PLACEMENT_3D ( 'NONE', #153, #41, #192 ) ;
#168 = CIRCLE ( 'NONE', #19, 25.39999999999999900 ) ;
#169 = CARTESIAN_POINT ( 'NONE',  ( 9.992007221626412800E-016, 4.884981308350691100E-015, 5.000000000000000000 ) ) ;
#170 = APPROVAL_DATE_TIME ( #149, #43 ) ;
#171 = CARTESIAN_POINT ( 'NONE',  ( -25.39999999999999900, 7.995584178184967200E-015, 0.8894949066220140300 ) ) ;
#172 = CARTESIAN_POINT ( 'NONE',  ( 8.533333229294271400, 8.582452316030519100, -0.3041626939224132400 ) ) ;
#173 = DIRECTION ( 'NONE',  ( 1.000000000000000000, 0.0000000000000000000, 0.0000000000000000000 ) ) ;
#174 = CALENDAR_DATE ( 2018, 21, 12 ) ;
#175 = VERTEX_POINT ( 'NONE', #171 ) ;
#176 = APPLICATION_CONTEXT ( 'configuration controlled 3d designs of mechanical parts and assemblies' ) ;
#177 = CARTESIAN_POINT ( 'NONE',  ( -25.48804228021060700, 25.70429285027437400, 1.808899874644665000 ) ) ;
#178 = CC_DESIGN_SECURITY_CLASSIFICATION ( #182, ( #107 ) ) ;
#179 = COORDINATED_UNIVERSAL_TIME_OFFSET ( 2, 0, .AHEAD. ) ;
#180 =( NAMED_UNIT ( * ) PLANE_ANGLE_UNIT ( ) SI_UNIT ( $, .RADIAN. ) );
#181 = LOCAL_TIME ( 9, 1, 41.00000000000000000, #191 ) ;
#182 = SECURITY_CLASSIFICATION ( '', '', #69 ) ;
#183 =( BOUNDED_SURFACE ( )  B_SPLINE_SURFACE ( 3, 3, ( 
 ( #185, #95, #118, #22 ),
 ( #97, #44, #136, #140 ),
 ( #26, #172, #101, #224 ),
 ( #211, #157, #60, #5 ) ),
 .UNSPECIFIED., .F., .F., .F. ) 
 B_SPLINE_SURFACE_WITH_KNOTS ( ( 4, 4 ),
 ( 4, 4 ),
 ( 0.0000000000000000000, 1.000000000000000000 ),
 ( 0.0000000000000000000, 1.000000000000000000 ),
 .UNSPECIFIED. ) 
 GEOMETRIC_REPRESENTATION_ITEM ( )  RATIONAL_B_SPLINE_SURFACE ( (
 ( 1.000000000000000000, 0.9995866723652705500, 0.9995866723652705500, 1.000000000000000000),
 ( 0.9983274361751380800, 0.9979147998572582800, 0.9979147998572582800, 0.9983274361751380800),
 ( 0.9983274361751380800, 0.9979147998572582800, 0.9979147998572582800, 0.9983274361751380800),
 ( 1.000000000000000000, 0.9995866723652705500, 0.9995866723652705500, 1.000000000000000000) ) ) 
 REPRESENTATION_ITEM ( '' )  SURFACE ( )  );
#184 = CIRCLE ( 'NONE', #165, 25.39999999999999900 ) ;
#185 = CARTESIAN_POINT ( 'NONE',  ( -5.684341886080800200E-014, -25.70429285027436400, 0.9109618872109592800 ) ) ;
#186 = EDGE_LOOP ( 'NONE', ( #16, #12, #133 ) ) ;
#187 = CARTESIAN_POINT ( 'NONE',  ( 9.992007221626412800E-016, 4.884981308350691100E-015, 0.8894949066220140300 ) ) ;
#188 = PERSON_AND_ORGANIZATION ( #124, #216 ) ;
#189 = PLANE ( 'NONE',  #167 ) ;
#190 = CARTESIAN_POINT ( 'NONE',  ( 25.39999999999999900, 4.884981308350691100E-015, 0.8894949066220140300 ) ) ;
#191 = COORDINATED_UNIVERSAL_TIME_OFFSET ( 2, 0, .AHEAD. ) ;
#192 = DIRECTION ( 'NONE',  ( 1.000000000000000000, 0.0000000000000000000, -0.0000000000000000000 ) ) ;
#193 = CARTESIAN_POINT ( 'NONE',  ( -8.504800086225671400, 25.70429285027436700, 0.9109618872110029100 ) ) ;
#194 = APPROVAL ( #141, 'UNSPECIFIED' ) ;
#195 = MECHANICAL_CONTEXT ( 'NONE', #176, 'mechanical' ) ;
#196 = CARTESIAN_POINT ( 'NONE',  ( -1.457167719820518000E-013, -8.582452316030508400, -0.3041626939223735500 ) ) ;
#197 = APPLICATION_CONTEXT ( 'configuration controlled 3d designs of mechanical parts and assemblies' ) ;
#198 = APPROVAL_ROLE ( '' ) ;
#199 = CIRCLE ( 'NONE', #87, 363.1000000000000200 ) ;
#200 = ORIENTED_EDGE ( 'NONE', *, *, #128, .F. ) ;
#201 = EDGE_CURVE ( 'NONE', #151, #109, #111, .T. ) ;
#202 = VERTEX_POINT ( 'NONE', #119 ) ;
#203 = CARTESIAN_POINT ( 'NONE',  ( 9.992007221626412800E-016, 4.884981308350691100E-015, 0.8894949066220140300 ) ) ;
#204 = AXIS2_PLACEMENT_3D ( 'NONE', #132, #39, #76 ) ;
#205 = ORIENTED_EDGE ( 'NONE', *, *, #113, .T. ) ;
#206 = CARTESIAN_POINT ( 'NONE',  ( -25.48804228021060700, -25.70429285027436400, 1.808899874644665000 ) ) ;
#207 = CARTESIAN_POINT ( 'NONE',  ( 9.992007221626412800E-016, 4.884981308350691100E-015, 0.8894949066220140300 ) ) ;
#208 = PRODUCT_DEFINITION ( 'UNKNOWN', '', #107, #37 ) ;
#209 = CIRCLE ( 'NONE', #162, 25.39999999999999900 ) ;
#210 = PRODUCT_DEFINITION_SHAPE ( 'NONE', 'NONE',  #208 ) ;
#211 = CARTESIAN_POINT ( 'NONE',  ( -5.684341886080800200E-014, 25.70429285027437400, 0.9109618872109592800 ) ) ;
#212 = DIRECTION ( 'NONE',  ( -0.0000000000000000000, -0.0000000000000000000, -1.000000000000000000 ) ) ;
#213 = CARTESIAN_POINT ( 'NONE',  ( -25.57355327982844500, 8.582452316030519100, 0.5967878267634012500 ) ) ;
#214 = ORIENTED_EDGE ( 'NONE', *, *, #148, .T. ) ;
#215 = DIRECTION ( 'NONE',  ( 0.0000000000000000000, 0.0000000000000000000, 1.000000000000000000 ) ) ;
#216 = ORGANIZATION ( 'UNSPECIFIED', 'UNSPECIFIED', '' ) ;
#217 = CARTESIAN_POINT ( 'NONE',  ( -25.57355327982844900, -8.582452316030508400, 0.5967878267633990300 ) ) ;
#218 = PERSON_AND_ORGANIZATION ( #124, #216 ) ;
#219 = PRODUCT ( '110-0529E BK7 pl-cx 50.8 F700', '110-0529E BK7 pl-cx 50.8 F700', '', ( #195 ) ) ;
#220 = DATE_AND_TIME ( #33, #129 ) ;
#221 = DIRECTION ( 'NONE',  ( -0.0000000000000000000, -0.0000000000000000000, -1.000000000000000000 ) ) ;
#222 = APPROVAL_PERSON_ORGANIZATION ( #138, #43, #11 ) ;
#223 = CARTESIAN_POINT ( 'NONE',  ( -5.684341886080800200E-014, -25.39999999999976400, 0.8894949066220021500 ) ) ;
#224 = CARTESIAN_POINT ( 'NONE',  ( 25.57355327982845200, 8.582452316030519100, 0.5967878267633871500 ) ) ;
#225 = PERSON_AND_ORGANIZATION ( #124, #216 ) ;
#226 = DIRECTION ( 'NONE',  ( 1.000000000000000000, -8.881784197001252300E-016, 0.0000000000000000000 ) ) ;
#227 = DIRECTION ( 'NONE',  ( 1.000000000000000000, 0.0000000000000000000, 0.0000000000000000000 ) ) ;
#228 = APPROVAL_PERSON_ORGANIZATION ( #42, #142, #198 ) ;
#229 = APPROVAL_ROLE ( '' ) ;
#230 = EDGE_CURVE ( 'NONE', #56, #151, #199, .T. ) ;
#231 = CARTESIAN_POINT ( 'NONE',  ( -1.422473250300981600E-013, 8.582452316030519100, -0.3041626939223713900 ) ) ;
#232 = ADVANCED_BREP_SHAPE_REPRESENTATION ( '110-0529E BK7 pl-cx 50.8 F700', ( #35, #110 ), #65 ) ;
#233 = ADVANCED_FACE ( 'NONE', ( #36 ), #58, .T. ) ;
#234 = CYLINDRICAL_SURFACE ( 'NONE', #90, 25.39999999999999900 ) ;
#235 = ORIENTED_EDGE ( 'NONE', *, *, #14, .F. ) ;
ENDSEC;
END-ISO-10303-21;
