ISO-10303-21;
HEADER;
FILE_DESCRIPTION (( 'STEP AP203' ),
    '1' );
FILE_NAME ('110-0527E BK7 pl-cx 50.8 F600.STEP',
    '2018-12-21T07:02:05',
    ( '' ),
    ( '' ),
    'SwSTEP 2.0',
    'SolidWorks 2017',
    '' );
FILE_SCHEMA (( 'CONFIG_CONTROL_DESIGN' ));
ENDSEC;

DATA;
#1 = PRODUCT_RELATED_PRODUCT_CATEGORY ( 'detail', '', ( #207 ) ) ;
#2 = EDGE_CURVE ( 'NONE', #88, #19, #130, .T. ) ;
#3 = CALENDAR_DATE ( 2018, 21, 12 ) ;
#4 = CARTESIAN_POINT ( 'NONE',  ( 6.938893903907228400E-015, -8.587598625977205900, -0.3552608294115194300 ) ) ;
#5 = CYLINDRICAL_SURFACE ( 'NONE', #24, 25.39999999999999900 ) ;
#6 = CARTESIAN_POINT ( 'NONE',  ( -17.07096978562911000, -8.587598625977202400, -0.004400046113527598300 ) ) ;
#7 = SECURITY_CLASSIFICATION ( '', '', #105 ) ;
#8 = ADVANCED_BREP_SHAPE_REPRESENTATION ( '110-0527E BK7 pl-cx 50.8 F600', ( #221, #202 ), #196 ) ;
#9 = CARTESIAN_POINT ( 'NONE',  ( 1.040834085586084300E-014, -25.70410909697362500, 1.063354671636941800 ) ) ;
#10 = DIRECTION ( 'NONE',  ( -0.0000000000000000000, -0.0000000000000000000, -1.000000000000000000 ) ) ;
#11 = CARTESIAN_POINT ( 'NONE',  ( 8.539090525382746900, 8.587598625977289400, -0.3552608294115273100 ) ) ;
#12 = CARTESIAN_POINT ( 'NONE',  ( 8.526512829121199700E-014, -8.587598625977205900, -0.3552608294115323600 ) ) ;
#13 = CC_DESIGN_PERSON_AND_ORGANIZATION_ASSIGNMENT ( #69, #103, ( #101 ) ) ;
#14 = ORIENTED_EDGE ( 'NONE', *, *, #2, .T. ) ;
#15 = APPLICATION_CONTEXT ( 'configuration controlled 3d designs of mechanical parts and assemblies' ) ;
#16 = CARTESIAN_POINT ( 'NONE',  ( 8.526512829121199700E-014, 8.526512829121199700E-014, 311.1999999999999900 ) ) ;
#17 =( NAMED_UNIT ( * ) SI_UNIT ( $, .STERADIAN. ) SOLID_ANGLE_UNIT ( ) );
#18 = DATE_TIME_ROLE ( 'creation_date' ) ;
#19 = VERTEX_POINT ( 'NONE', #203 ) ;
#20 = UNCERTAINTY_MEASURE_WITH_UNIT (LENGTH_MEASURE( 1.000000000000000100E-005 ), #126, 'distance_accuracy_value', 'NONE');
#21 = APPROVAL ( #209, 'UNSPECIFIED' ) ;
#22 = ORIENTED_EDGE ( 'NONE', *, *, #145, .T. ) ;
#23 = LOCAL_TIME ( 9, 2, 5.000000000000000000, #57 ) ;
#24 = AXIS2_PLACEMENT_3D ( 'NONE', #175, #134, #29 ) ;
#25 = CARTESIAN_POINT ( 'NONE',  ( -17.07096978562911000, 8.587598625977289400, -0.004400046113522611800 ) ) ;
#26 = PERSON_AND_ORGANIZATION ( #115, #204 ) ;
#27 = CARTESIAN_POINT ( 'NONE',  ( -25.46474752984147100, 25.70410909697370600, 2.110554355584159900 ) ) ;
#28 = CIRCLE ( 'NONE', #168, 311.1999999999999900 ) ;
#29 = DIRECTION ( 'NONE',  ( 1.000000000000000000, 0.0000000000000000000, 0.0000000000000000000 ) ) ;
#30 = DIRECTION ( 'NONE',  ( 1.000000000000000000, 0.0000000000000000000, 0.0000000000000000000 ) ) ;
#31 = EDGE_CURVE ( 'NONE', #128, #88, #152, .T. ) ;
#32 = DIRECTION ( 'NONE',  ( -0.0000000000000000000, -0.0000000000000000000, -1.000000000000000000 ) ) ;
#33 = EDGE_LOOP ( 'NONE', ( #197, #135 ) ) ;
#34 = COORDINATED_UNIVERSAL_TIME_OFFSET ( 2, 0, .AHEAD. ) ;
#35 = VECTOR ( 'NONE', #79, 1000.000000000000000 ) ;
#36 = VECTOR ( 'NONE', #62, 1000.000000000000000 ) ;
#37 = CC_DESIGN_APPROVAL ( #21, ( #7 ) ) ;
#38 = ORIENTED_EDGE ( 'NONE', *, *, #235, .F. ) ;
#39 = AXIS2_PLACEMENT_3D ( 'NONE', #92, #96, #75 ) ;
#40 = CALENDAR_DATE ( 2018, 21, 12 ) ;
#41 = CARTESIAN_POINT ( 'NONE',  ( 8.526512829121199700E-014, -25.40000000000014400, 1.038300236795874200 ) ) ;
#42 = ORIENTED_EDGE ( 'NONE', *, *, #31, .F. ) ;
#43 = CARTESIAN_POINT ( 'NONE',  ( -25.39999999999999900, 7.995584178184967200E-015, 1.038300236795840000 ) ) ;
#44 = CARTESIAN_POINT ( 'NONE',  ( 25.58122743029919700, -8.587598625977205900, 0.6967289163575389700 ) ) ;
#45 = CARTESIAN_POINT ( 'NONE',  ( 25.39999999999999900, 4.884981308350691100E-015, 1.038300236795840000 ) ) ;
#46 = APPROVAL_STATUS ( 'not_yet_approved' ) ;
#47 = DIRECTION ( 'NONE',  ( 1.000000000000000000, 0.0000000000000000000, 0.0000000000000000000 ) ) ;
#48 = CC_DESIGN_DATE_AND_TIME_ASSIGNMENT ( #222, #143, ( #7 ) ) ;
#49 = ORIENTED_EDGE ( 'NONE', *, *, #145, .F. ) ;
#50 =( BOUNDED_SURFACE ( )  B_SPLINE_SURFACE ( 3, 3, ( 
 ( #139, #158, #99, #192 ),
 ( #12, #159, #77, #44 ),
 ( #76, #11, #174, #227 ),
 ( #136, #63, #82, #118 ) ),
 .UNSPECIFIED., .F., .F., .T. ) 
 B_SPLINE_SURFACE_WITH_KNOTS ( ( 4, 4 ),
 ( 4, 4 ),
 ( 0.0000000000000000000, 1.000000000000000000 ),
 ( 0.0000000000000000000, 1.000000000000000000 ),
 .UNSPECIFIED. ) 
 GEOMETRIC_REPRESENTATION_ITEM ( )  RATIONAL_B_SPLINE_SURFACE ( (
 ( 1.000000000000000000, 0.9994369997511422000, 0.9994369997511422000, 1.000000000000000000),
 ( 0.9977220336940082500, 0.9971603159407476100, 0.9971603159407476100, 0.9977220336940082500),
 ( 0.9977220336940082500, 0.9971603159407476100, 0.9971603159407476100, 0.9977220336940082500),
 ( 1.000000000000000000, 0.9994369997511422000, 0.9994369997511422000, 1.000000000000000000) ) ) 
 REPRESENTATION_ITEM ( '' )  SURFACE ( )  );
#51 = DIRECTION ( 'NONE',  ( 1.000000000000000000, 0.0000000000000000000, 0.0000000000000000000 ) ) ;
#52 = ADVANCED_FACE ( 'NONE', ( #185 ), #133, .T. ) ;
#53 = ADVANCED_FACE ( 'NONE', ( #104 ), #50, .T. ) ;
#54 = LOCAL_TIME ( 9, 2, 5.000000000000000000, #162 ) ;
#55 = CALENDAR_DATE ( 2018, 21, 12 ) ;
#56 = CIRCLE ( 'NONE', #166, 25.39999999999999900 ) ;
#57 = COORDINATED_UNIVERSAL_TIME_OFFSET ( 2, 0, .AHEAD. ) ;
#58 = AXIS2_PLACEMENT_3D ( 'NONE', #224, #10, #30 ) ;
#59 = LOCAL_TIME ( 9, 2, 5.000000000000000000, #34 ) ;
#60 = ORIENTED_EDGE ( 'NONE', *, *, #117, .T. ) ;
#61 = PRODUCT_DEFINITION ( 'UNKNOWN', '', #101, #150 ) ;
#62 = DIRECTION ( 'NONE',  ( 0.0000000000000000000, 0.0000000000000000000, 1.000000000000000000 ) ) ;
#63 = CARTESIAN_POINT ( 'NONE',  ( 8.500209184872190300, 25.70410909697370600, 1.063354671636928900 ) ) ;
#64 = APPROVAL_PERSON_ORGANIZATION ( #165, #21, #225 ) ;
#65 = DIRECTION ( 'NONE',  ( 0.0000000000000000000, 0.0000000000000000000, 1.000000000000000000 ) ) ;
#66 = EDGE_LOOP ( 'NONE', ( #147, #22, #200, #179, #186 ) ) ;
#67 = COORDINATED_UNIVERSAL_TIME_OFFSET ( 2, 0, .AHEAD. ) ;
#68 = VERTEX_POINT ( 'NONE', #80 ) ;
#69 = PERSON_AND_ORGANIZATION ( #115, #204 ) ;
#70 = SHAPE_DEFINITION_REPRESENTATION ( #173, #8 ) ;
#71 = CARTESIAN_POINT ( 'NONE',  ( 9.992007221626412800E-016, 4.884981308350691100E-015, 1.038300236795840000 ) ) ;
#72 = CC_DESIGN_SECURITY_CLASSIFICATION ( #7, ( #101 ) ) ;
#73 = CARTESIAN_POINT ( 'NONE',  ( 6.938893903907228400E-015, 8.587598625977289400, -0.3552608294115142700 ) ) ;
#74 = CIRCLE ( 'NONE', #191, 25.39999999999999900 ) ;
#75 = DIRECTION ( 'NONE',  ( 1.000000000000000000, 0.0000000000000000000, 0.0000000000000000000 ) ) ;
#76 = CARTESIAN_POINT ( 'NONE',  ( 8.526512829121199700E-014, 8.587598625977289400, -0.3552608294115273700 ) ) ;
#77 = CARTESIAN_POINT ( 'NONE',  ( 17.07096978562919200, -8.587598625977202400, -0.004400046113522505100 ) ) ;
#78 = LINE ( 'NONE', #193, #35 ) ;
#79 = DIRECTION ( 'NONE',  ( 0.0000000000000000000, 0.0000000000000000000, 1.000000000000000000 ) ) ;
#80 = CARTESIAN_POINT ( 'NONE',  ( 25.39999999999999900, 4.884981308350691100E-015, 5.000000000000000900 ) ) ;
#81 = DIRECTION ( 'NONE',  ( 1.000000000000000000, 0.0000000000000000000, 0.0000000000000000000 ) ) ;
#82 = CARTESIAN_POINT ( 'NONE',  ( 16.99323993991465900, 25.70410909697370600, 1.412617868219274300 ) ) ;
#83 = AXIS2_PLACEMENT_3D ( 'NONE', #157, #176, #223 ) ;
#84 = APPROVAL_ROLE ( '' ) ;
#85 = PLANE ( 'NONE',  #184 ) ;
#86 = DATE_AND_TIME ( #55, #151 ) ;
#87 = APPLICATION_CONTEXT ( 'configuration controlled 3d designs of mechanical parts and assemblies' ) ;
#88 = VERTEX_POINT ( 'NONE', #122 ) ;
#89 = CC_DESIGN_DATE_AND_TIME_ASSIGNMENT ( #129, #18, ( #61 ) ) ;
#90 = ORIENTED_EDGE ( 'NONE', *, *, #235, .T. ) ;
#91 = PERSON_AND_ORGANIZATION ( #115, #204 ) ;
#92 = CARTESIAN_POINT ( 'NONE',  ( 9.992007221626412800E-016, 4.884981308350691100E-015, 1.038300236795840000 ) ) ;
#93 = DIRECTION ( 'NONE',  ( -0.0000000000000000000, -0.0000000000000000000, -1.000000000000000000 ) ) ;
#94 = FACE_OUTER_BOUND ( 'NONE', #66, .T. ) ;
#95 = DIRECTION ( 'NONE',  ( 1.000000000000000000, 0.0000000000000000000, 0.0000000000000000000 ) ) ;
#96 = DIRECTION ( 'NONE',  ( -0.0000000000000000000, -0.0000000000000000000, -1.000000000000000000 ) ) ;
#97 = LOCAL_TIME ( 9, 2, 5.000000000000000000, #67 ) ;
#98 = LINE ( 'NONE', #43, #36 ) ;
#99 = CARTESIAN_POINT ( 'NONE',  ( 16.99323993991465500, -25.70410909697362100, 1.412617868219274500 ) ) ;
#100 = APPROVAL_PERSON_ORGANIZATION ( #216, #107, #215 ) ;
#101 = PRODUCT_DEFINITION_FORMATION_WITH_SPECIFIED_SOURCE ( 'ANY', '', #207, .NOT_KNOWN. ) ;
#102 = CARTESIAN_POINT ( 'NONE',  ( -8.500209184872101500, 25.70410909697370600, 1.063354671636943500 ) ) ;
#103 = PERSON_AND_ORGANIZATION_ROLE ( 'design_supplier' ) ;
#104 = FACE_OUTER_BOUND ( 'NONE', #201, .T. ) ;
#105 = SECURITY_CLASSIFICATION_LEVEL ( 'unclassified' ) ;
#106 = DIRECTION ( 'NONE',  ( 1.000000000000000000, 0.0000000000000000000, -0.0000000000000000000 ) ) ;
#107 = APPROVAL ( #195, 'UNSPECIFIED' ) ;
#108 = ADVANCED_FACE ( 'NONE', ( #94 ), #5, .T. ) ;
#109 = ORIENTED_EDGE ( 'NONE', *, *, #31, .T. ) ;
#110 = PERSON_AND_ORGANIZATION_ROLE ( 'creator' ) ;
#111 = EDGE_CURVE ( 'NONE', #234, #68, #56, .T. ) ;
#112 = COORDINATED_UNIVERSAL_TIME_OFFSET ( 2, 0, .AHEAD. ) ;
#113 = CARTESIAN_POINT ( 'NONE',  ( -8.539090525382665200, -8.587598625977202400, -0.3552608294115173200 ) ) ;
#114 = CARTESIAN_POINT ( 'NONE',  ( -25.46474752984147100, -25.70410909697362500, 2.110554355584159900 ) ) ;
#115 = PERSON ( 'UNSPECIFIED', 'UNSPECIFIED', 'UNSPECIFIED', ('UNSPECIFIED'), ('UNSPECIFIED'), ('UNSPECIFIED') ) ;
#116 = EDGE_CURVE ( 'NONE', #187, #68, #78, .T. ) ;
#117 = EDGE_CURVE ( 'NONE', #68, #234, #194, .T. ) ;
#118 = CARTESIAN_POINT ( 'NONE',  ( 25.46474752984154900, 25.70410909697370600, 2.110554355584161700 ) ) ;
#119 = CARTESIAN_POINT ( 'NONE',  ( 1.040834085586084300E-014, 25.70410909697370600, 1.063354671636941800 ) ) ;
#120 = DIRECTION ( 'NONE',  ( -0.0000000000000000000, -0.0000000000000000000, -1.000000000000000000 ) ) ;
#121 = PERSON_AND_ORGANIZATION ( #115, #204 ) ;
#122 = CARTESIAN_POINT ( 'NONE',  ( -25.39999999999999900, 7.995584178184967200E-015, 1.038300236795840000 ) ) ;
#123 = CC_DESIGN_PERSON_AND_ORGANIZATION_ASSIGNMENT ( #121, #125, ( #7 ) ) ;
#124 = CARTESIAN_POINT ( 'NONE',  ( 0.0000000000000000000, 0.0000000000000000000, 0.0000000000000000000 ) ) ;
#125 = PERSON_AND_ORGANIZATION_ROLE ( 'classification_officer' ) ;
#126 =( LENGTH_UNIT ( ) NAMED_UNIT ( * ) SI_UNIT ( .MILLI., .METRE. ) );
#127 = APPROVAL_PERSON_ORGANIZATION ( #144, #153, #84 ) ;
#128 = VERTEX_POINT ( 'NONE', #41 ) ;
#129 = DATE_AND_TIME ( #218, #23 ) ;
#130 = CIRCLE ( 'NONE', #181, 25.39999999999999900 ) ;
#131 = CARTESIAN_POINT ( 'NONE',  ( -25.58122743029912300, 8.587598625977289400, 0.6967289163575423000 ) ) ;
#132 = EDGE_CURVE ( 'NONE', #19, #187, #149, .T. ) ;
#133 =( BOUNDED_SURFACE ( )  B_SPLINE_SURFACE ( 3, 3, ( 
 ( #114, #172, #220, #9 ),
 ( #170, #6, #113, #4 ),
 ( #131, #25, #188, #73 ),
 ( #27, #208, #102, #119 ) ),
 .UNSPECIFIED., .F., .F., .F. ) 
 B_SPLINE_SURFACE_WITH_KNOTS ( ( 4, 4 ),
 ( 4, 4 ),
 ( 0.0000000000000000000, 1.000000000000000000 ),
 ( 0.0000000000000000000, 1.000000000000000000 ),
 .UNSPECIFIED. ) 
 GEOMETRIC_REPRESENTATION_ITEM ( )  RATIONAL_B_SPLINE_SURFACE ( (
 ( 1.000000000000000000, 0.9994369997511422000, 0.9994369997511422000, 1.000000000000000000),
 ( 0.9977220336940082500, 0.9971603159407476100, 0.9971603159407476100, 0.9977220336940082500),
 ( 0.9977220336940082500, 0.9971603159407476100, 0.9971603159407476100, 0.9977220336940082500),
 ( 1.000000000000000000, 0.9994369997511422000, 0.9994369997511422000, 1.000000000000000000) ) ) 
 REPRESENTATION_ITEM ( '' )  SURFACE ( )  );
#134 = DIRECTION ( 'NONE',  ( 0.0000000000000000000, 0.0000000000000000000, 1.000000000000000000 ) ) ;
#135 = ORIENTED_EDGE ( 'NONE', *, *, #111, .F. ) ;
#136 = CARTESIAN_POINT ( 'NONE',  ( 8.526512829121199700E-014, 25.70410909697370600, 1.063354671636929100 ) ) ;
#137 = CARTESIAN_POINT ( 'NONE',  ( 9.992007221626412800E-016, 4.884981308350691100E-015, 5.000000000000000900 ) ) ;
#138 = CC_DESIGN_APPROVAL ( #107, ( #61 ) ) ;
#139 = CARTESIAN_POINT ( 'NONE',  ( 8.526512829121199700E-014, -25.70410909697362500, 1.063354671636929100 ) ) ;
#140 = FACE_OUTER_BOUND ( 'NONE', #229, .T. ) ;
#141 =( NAMED_UNIT ( * ) PLANE_ANGLE_UNIT ( ) SI_UNIT ( $, .RADIAN. ) );
#142 = DIRECTION ( 'NONE',  ( 0.0000000000000000000, 0.0000000000000000000, 1.000000000000000000 ) ) ;
#143 = DATE_TIME_ROLE ( 'classification_date' ) ;
#144 = PERSON_AND_ORGANIZATION ( #115, #204 ) ;
#145 = EDGE_CURVE ( 'NONE', #88, #234, #98, .T. ) ;
#146 = DIRECTION ( 'NONE',  ( 1.000000000000000000, 0.0000000000000000000, 0.0000000000000000000 ) ) ;
#147 = ORIENTED_EDGE ( 'NONE', *, *, #2, .F. ) ;
#148 = AXIS2_PLACEMENT_3D ( 'NONE', #163, #180, #178 ) ;
#149 = CIRCLE ( 'NONE', #58, 25.39999999999999900 ) ;
#150 = DESIGN_CONTEXT ( 'detailed design', #15, 'design' ) ;
#151 = LOCAL_TIME ( 9, 2, 5.000000000000000000, #112 ) ;
#152 = CIRCLE ( 'NONE', #39, 25.39999999999999900 ) ;
#153 = APPROVAL ( #46, 'UNSPECIFIED' ) ;
#154 = EDGE_LOOP ( 'NONE', ( #156, #109, #14 ) ) ;
#155 = DATE_AND_TIME ( #3, #54 ) ;
#156 = ORIENTED_EDGE ( 'NONE', *, *, #199, .F. ) ;
#157 = CARTESIAN_POINT ( 'NONE',  ( 9.992007221626412800E-016, 4.884981308350691100E-015, 5.000000000000000900 ) ) ;
#158 = CARTESIAN_POINT ( 'NONE',  ( 8.500209184872190300, -25.70410909697362100, 1.063354671636928900 ) ) ;
#159 = CARTESIAN_POINT ( 'NONE',  ( 8.539090525382746900, -8.587598625977202400, -0.3552608294115322500 ) ) ;
#160 = APPLICATION_PROTOCOL_DEFINITION ( 'international standard', 'config_control_design', 1994, #15 ) ;
#161 = DIRECTION ( 'NONE',  ( 0.0000000000000000000, -1.000000000000000000, -3.567554706379037700E-016 ) ) ;
#162 = COORDINATED_UNIVERSAL_TIME_OFFSET ( 2, 0, .AHEAD. ) ;
#163 = CARTESIAN_POINT ( 'NONE',  ( 9.992007221626412800E-016, 4.884981308350691100E-015, 1.038300236795840000 ) ) ;
#164 = CLOSED_SHELL ( 'NONE', ( #53, #108, #52, #213, #226 ) ) ;
#165 = PERSON_AND_ORGANIZATION ( #115, #204 ) ;
#166 = AXIS2_PLACEMENT_3D ( 'NONE', #137, #32, #47 ) ;
#167 = ORIENTED_EDGE ( 'NONE', *, *, #199, .T. ) ;
#168 = AXIS2_PLACEMENT_3D ( 'NONE', #16, #51, #161 ) ;
#169 = CYLINDRICAL_SURFACE ( 'NONE', #148, 25.39999999999999900 ) ;
#170 = CARTESIAN_POINT ( 'NONE',  ( -25.58122743029912300, -8.587598625977205900, 0.6967289163575373100 ) ) ;
#171 = APPROVAL_DATE_TIME ( #86, #153 ) ;
#172 = CARTESIAN_POINT ( 'NONE',  ( -16.99323993991457700, -25.70410909697362100, 1.412617868219269200 ) ) ;
#173 = PRODUCT_DEFINITION_SHAPE ( 'NONE', 'NONE',  #61 ) ;
#174 = CARTESIAN_POINT ( 'NONE',  ( 17.07096978562919200, 8.587598625977289400, -0.004400046113517515200 ) ) ;
#175 = CARTESIAN_POINT ( 'NONE',  ( 9.992007221626412800E-016, 4.884981308350691100E-015, 1.038300236795840000 ) ) ;
#176 = DIRECTION ( 'NONE',  ( -0.0000000000000000000, -0.0000000000000000000, -1.000000000000000000 ) ) ;
#177 = CC_DESIGN_PERSON_AND_ORGANIZATION_ASSIGNMENT ( #198, #210, ( #101 ) ) ;
#178 = DIRECTION ( 'NONE',  ( 1.000000000000000000, 0.0000000000000000000, 0.0000000000000000000 ) ) ;
#179 = ORIENTED_EDGE ( 'NONE', *, *, #116, .F. ) ;
#180 = DIRECTION ( 'NONE',  ( 0.0000000000000000000, 0.0000000000000000000, 1.000000000000000000 ) ) ;
#181 = AXIS2_PLACEMENT_3D ( 'NONE', #71, #93, #95 ) ;
#182 = PERSON_AND_ORGANIZATION_ROLE ( 'design_owner' ) ;
#183 = DATE_AND_TIME ( #40, #59 ) ;
#184 = AXIS2_PLACEMENT_3D ( 'NONE', #212, #65, #106 ) ;
#185 = FACE_OUTER_BOUND ( 'NONE', #154, .T. ) ;
#186 = ORIENTED_EDGE ( 'NONE', *, *, #132, .F. ) ;
#187 = VERTEX_POINT ( 'NONE', #45 ) ;
#188 = CARTESIAN_POINT ( 'NONE',  ( -8.539090525382665200, 8.587598625977289400, -0.3552608294115122100 ) ) ;
#189 = APPROVAL_DATE_TIME ( #155, #107 ) ;
#190 = ORIENTED_EDGE ( 'NONE', *, *, #132, .T. ) ;
#191 = AXIS2_PLACEMENT_3D ( 'NONE', #231, #120, #146 ) ;
#192 = CARTESIAN_POINT ( 'NONE',  ( 25.46474752984154600, -25.70410909697362500, 2.110554355584161700 ) ) ;
#193 = CARTESIAN_POINT ( 'NONE',  ( 25.39999999999999900, 4.884981308350691100E-015, 1.038300236795840000 ) ) ;
#194 = CIRCLE ( 'NONE', #83, 25.39999999999999900 ) ;
#195 = APPROVAL_STATUS ( 'not_yet_approved' ) ;
#196 =( GEOMETRIC_REPRESENTATION_CONTEXT ( 3 ) GLOBAL_UNCERTAINTY_ASSIGNED_CONTEXT ( ( #20 ) ) GLOBAL_UNIT_ASSIGNED_CONTEXT ( ( #126, #141, #17 ) ) REPRESENTATION_CONTEXT ( 'NONE', 'WORKASPACE' ) );
#197 = ORIENTED_EDGE ( 'NONE', *, *, #117, .F. ) ;
#198 = PERSON_AND_ORGANIZATION ( #115, #204 ) ;
#199 = EDGE_CURVE ( 'NONE', #128, #19, #28, .T. ) ;
#200 = ORIENTED_EDGE ( 'NONE', *, *, #111, .T. ) ;
#201 = EDGE_LOOP ( 'NONE', ( #90, #167, #190 ) ) ;
#202 = AXIS2_PLACEMENT_3D ( 'NONE', #124, #142, #81 ) ;
#203 = CARTESIAN_POINT ( 'NONE',  ( 8.526512829121199700E-014, 25.40000000000023700, 1.038300236795874200 ) ) ;
#204 = ORGANIZATION ( 'UNSPECIFIED', 'UNSPECIFIED', '' ) ;
#205 = CC_DESIGN_PERSON_AND_ORGANIZATION_ASSIGNMENT ( #91, #110, ( #61 ) ) ;
#206 = ORIENTED_EDGE ( 'NONE', *, *, #116, .T. ) ;
#207 = PRODUCT ( '110-0527E BK7 pl-cx 50.8 F600', '110-0527E BK7 pl-cx 50.8 F600', '', ( #228 ) ) ;
#208 = CARTESIAN_POINT ( 'NONE',  ( -16.99323993991457700, 25.70410909697370600, 1.412617868219269200 ) ) ;
#209 = APPROVAL_STATUS ( 'not_yet_approved' ) ;
#210 = PERSON_AND_ORGANIZATION_ROLE ( 'creator' ) ;
#211 = CALENDAR_DATE ( 2018, 21, 12 ) ;
#212 = CARTESIAN_POINT ( 'NONE',  ( 0.0000000000000000000, 52.02000000000000300, 5.000000000000000000 ) ) ;
#213 = ADVANCED_FACE ( 'NONE', ( #140 ), #169, .T. ) ;
#214 = FACE_OUTER_BOUND ( 'NONE', #33, .T. ) ;
#215 = APPROVAL_ROLE ( '' ) ;
#216 = PERSON_AND_ORGANIZATION ( #115, #204 ) ;
#217 = CC_DESIGN_PERSON_AND_ORGANIZATION_ASSIGNMENT ( #26, #182, ( #207 ) ) ;
#218 = CALENDAR_DATE ( 2018, 21, 12 ) ;
#219 = CC_DESIGN_APPROVAL ( #153, ( #101 ) ) ;
#220 = CARTESIAN_POINT ( 'NONE',  ( -8.500209184872101500, -25.70410909697362100, 1.063354671636943500 ) ) ;
#221 = MANIFOLD_SOLID_BREP ( 'Imported1', #164 ) ;
#222 = DATE_AND_TIME ( #211, #97 ) ;
#223 = DIRECTION ( 'NONE',  ( 1.000000000000000000, 0.0000000000000000000, 0.0000000000000000000 ) ) ;
#224 = CARTESIAN_POINT ( 'NONE',  ( 9.992007221626412800E-016, 4.884981308350691100E-015, 1.038300236795840000 ) ) ;
#225 = APPROVAL_ROLE ( '' ) ;
#226 = ADVANCED_FACE ( 'NONE', ( #214 ), #85, .T. ) ;
#227 = CARTESIAN_POINT ( 'NONE',  ( 25.58122743029919700, 8.587598625977289400, 0.6967289163575440800 ) ) ;
#228 = MECHANICAL_CONTEXT ( 'NONE', #87, 'mechanical' ) ;
#229 = EDGE_LOOP ( 'NONE', ( #49, #42, #38, #206, #60 ) ) ;
#230 = CARTESIAN_POINT ( 'NONE',  ( -25.39999999999999900, 7.995584178184967200E-015, 5.000000000000000900 ) ) ;
#231 = CARTESIAN_POINT ( 'NONE',  ( 9.992007221626412800E-016, 4.884981308350691100E-015, 1.038300236795840000 ) ) ;
#232 = APPLICATION_PROTOCOL_DEFINITION ( 'international standard', 'config_control_design', 1994, #87 ) ;
#233 = APPROVAL_DATE_TIME ( #183, #21 ) ;
#234 = VERTEX_POINT ( 'NONE', #230 ) ;
#235 = EDGE_CURVE ( 'NONE', #187, #128, #74, .T. ) ;
ENDSEC;
END-ISO-10303-21;
