ISO-10303-21;
HEADER;
FILE_DESCRIPTION (( 'STEP AP203' ),
    '1' );
FILE_NAME ('110-0525E BK7 pl-cx 50.8 F500.STEP',
    '2018-12-21T07:02:17',
    ( '' ),
    ( '' ),
    'SwSTEP 2.0',
    'SolidWorks 2017',
    '' );
FILE_SCHEMA (( 'CONFIG_CONTROL_DESIGN' ));
ENDSEC;

DATA;
#1 = APPLICATION_CONTEXT ( 'configuration controlled 3d designs of mechanical parts and assemblies' ) ;
#2 = CARTESIAN_POINT ( 'NONE',  ( 0.0000000000000000000, 52.02000000000000300, 5.200000000000001100 ) ) ;
#3 = PERSON_AND_ORGANIZATION_ROLE ( 'creator' ) ;
#4 = CC_DESIGN_SECURITY_CLASSIFICATION ( #14, ( #111 ) ) ;
#5 = CARTESIAN_POINT ( 'NONE',  ( -25.39999999999999900, 7.995584178184967200E-015, 5.200000000000001100 ) ) ;
#6 = MECHANICAL_CONTEXT ( 'NONE', #1, 'mechanical' ) ;
#7 = CC_DESIGN_DATE_AND_TIME_ASSIGNMENT ( #127, #199, ( #14 ) ) ;
#8 = DIRECTION ( 'NONE',  ( 0.0000000000000000000, 0.0000000000000000000, 1.000000000000000000 ) ) ;
#9 = AXIS2_PLACEMENT_3D ( 'NONE', #99, #116, #48 ) ;
#10 = PERSON_AND_ORGANIZATION ( #30, #89 ) ;
#11 = PERSON_AND_ORGANIZATION ( #30, #89 ) ;
#12 = EDGE_LOOP ( 'NONE', ( #21, #121, #206, #29, #190 ) ) ;
#13 = COORDINATED_UNIVERSAL_TIME_OFFSET ( 2, 0, .AHEAD. ) ;
#14 = SECURITY_CLASSIFICATION ( '', '', #109 ) ;
#15 = DIRECTION ( 'NONE',  ( -0.0000000000000000000, -0.0000000000000000000, -1.000000000000000000 ) ) ;
#16 = APPROVAL ( #126, 'UNSPECIFIED' ) ;
#17 = FACE_OUTER_BOUND ( 'NONE', #12, .T. ) ;
#18 = CARTESIAN_POINT ( 'NONE',  ( 16.97486005625394200, 25.70380444280797900, 1.695415738497187300 ) ) ;
#19 = ADVANCED_FACE ( 'NONE', ( #82 ), #180, .T. ) ;
#20 = CARTESIAN_POINT ( 'NONE',  ( 9.992007221626412800E-016, 4.884981308350691100E-015, 1.246557257122760100 ) ) ;
#21 = ORIENTED_EDGE ( 'NONE', *, *, #98, .F. ) ;
#22 = EDGE_CURVE ( 'NONE', #80, #43, #233, .T. ) ;
#23 =( LENGTH_UNIT ( ) NAMED_UNIT ( * ) SI_UNIT ( .MILLI., .METRE. ) );
#24 = DIRECTION ( 'NONE',  ( 1.000000000000000000, 0.0000000000000000000, 0.0000000000000000000 ) ) ;
#25 = VECTOR ( 'NONE', #198, 1000.000000000000000 ) ;
#26 = PRODUCT ( '110-0525E BK7 pl-cx 50.8 F500', '110-0525E BK7 pl-cx 50.8 F500', '', ( #6 ) ) ;
#27 = CC_DESIGN_PERSON_AND_ORGANIZATION_ASSIGNMENT ( #28, #78, ( #14 ) ) ;
#28 = PERSON_AND_ORGANIZATION ( #30, #89 ) ;
#29 = ORIENTED_EDGE ( 'NONE', *, *, #85, .F. ) ;
#30 = PERSON ( 'UNSPECIFIED', 'UNSPECIFIED', 'UNSPECIFIED', ('UNSPECIFIED'), ('UNSPECIFIED'), ('UNSPECIFIED') ) ;
#31 =( BOUNDED_SURFACE ( )  B_SPLINE_SURFACE ( 3, 3, ( 
 ( #86, #207, #106, #209 ),
 ( #102, #100, #118, #155 ),
 ( #154, #54, #234, #137 ),
 ( #173, #50, #18, #135 ) ),
 .UNSPECIFIED., .F., .F., .T. ) 
 B_SPLINE_SURFACE_WITH_KNOTS ( ( 4, 4 ),
 ( 4, 4 ),
 ( 0.0000000000000000000, 1.000000000000000000 ),
 ( 0.0000000000000000000, 1.000000000000000000 ),
 .UNSPECIFIED. ) 
 GEOMETRIC_REPRESENTATION_ITEM ( )  RATIONAL_B_SPLINE_SURFACE ( (
 ( 1.000000000000000000, 0.9991889511066741600, 0.9991889511066741600, 1.000000000000000000),
 ( 0.9967190197258384300, 0.9959106318679329400, 0.9959106318679329400, 0.9967190197258384300),
 ( 0.9967190197258384300, 0.9959106318679329400, 0.9959106318679329400, 0.9967190197258384300),
 ( 1.000000000000000000, 0.9991889511066741600, 0.9991889511066741600, 1.000000000000000000) ) ) 
 REPRESENTATION_ITEM ( '' )  SURFACE ( )  );
#32 = DATE_AND_TIME ( #62, #83 ) ;
#33 = CARTESIAN_POINT ( 'NONE',  ( -17.08689144392678800, -8.596138575369101500, -0.005393699032265686700 ) ) ;
#34 = CARTESIAN_POINT ( 'NONE',  ( -25.42615369290894000, 25.70380444280797900, 2.531969397609856700 ) ) ;
#35 = CIRCLE ( 'NONE', #105, 25.39999999999999900 ) ;
#36 = VERTEX_POINT ( 'NONE', #69 ) ;
#37 = CARTESIAN_POINT ( 'NONE',  ( 9.992007221626412800E-016, 4.884981308350691100E-015, 1.246557257122760100 ) ) ;
#38 = CARTESIAN_POINT ( 'NONE',  ( -8.548645749219224000, -8.596138575369099800, -0.4269439361915380300 ) ) ;
#39 = DIRECTION ( 'NONE',  ( 1.000000000000000000, 0.0000000000000000000, 0.0000000000000000000 ) ) ;
#40 = PRODUCT_DEFINITION_SHAPE ( 'NONE', 'NONE',  #227 ) ;
#41 = CC_DESIGN_APPROVAL ( #163, ( #111 ) ) ;
#42 = COORDINATED_UNIVERSAL_TIME_OFFSET ( 2, 0, .AHEAD. ) ;
#43 = VERTEX_POINT ( 'NONE', #104 ) ;
#44 = CC_DESIGN_PERSON_AND_ORGANIZATION_ASSIGNMENT ( #115, #64, ( #111 ) ) ;
#45 = CC_DESIGN_PERSON_AND_ORGANIZATION_ASSIGNMENT ( #97, #93, ( #227 ) ) ;
#46 = ADVANCED_BREP_SHAPE_REPRESENTATION ( '110-0525E BK7 pl-cx 50.8 F500', ( #212, #133 ), #132 ) ;
#47 = CLOSED_SHELL ( 'NONE', ( #208, #218, #191, #19, #134 ) ) ;
#48 = DIRECTION ( 'NONE',  ( 1.000000000000000000, 0.0000000000000000000, 0.0000000000000000000 ) ) ;
#49 = PRODUCT_RELATED_PRODUCT_CATEGORY ( 'detail', '', ( #26 ) ) ;
#50 = CARTESIAN_POINT ( 'NONE',  ( 8.492595961043678100, 25.70380444280797900, 1.276629424676321500 ) ) ;
#51 = COORDINATED_UNIVERSAL_TIME_OFFSET ( 2, 0, .AHEAD. ) ;
#52 = EDGE_CURVE ( 'NONE', #157, #107, #205, .T. ) ;
#53 = DIRECTION ( 'NONE',  ( -0.0000000000000000000, -0.0000000000000000000, -1.000000000000000000 ) ) ;
#54 = CARTESIAN_POINT ( 'NONE',  ( 8.548645749219007300, 8.596138575369067800, -0.4269439361915657300 ) ) ;
#55 = APPLICATION_PROTOCOL_DEFINITION ( 'international standard', 'config_control_design', 1994, #1 ) ;
#56 = PERSON_AND_ORGANIZATION ( #30, #89 ) ;
#57 = ORIENTED_EDGE ( 'NONE', *, *, #140, .F. ) ;
#58 = DIRECTION ( 'NONE',  ( -0.0000000000000000000, -0.0000000000000000000, -1.000000000000000000 ) ) ;
#59 = CC_DESIGN_DATE_AND_TIME_ASSIGNMENT ( #151, #76, ( #227 ) ) ;
#60 =( NAMED_UNIT ( * ) PLANE_ANGLE_UNIT ( ) SI_UNIT ( $, .RADIAN. ) );
#61 = PERSON_AND_ORGANIZATION_ROLE ( 'design_owner' ) ;
#62 = CALENDAR_DATE ( 2018, 21, 12 ) ;
#63 = LINE ( 'NONE', #192, #184 ) ;
#64 = PERSON_AND_ORGANIZATION_ROLE ( 'design_supplier' ) ;
#65 = ORIENTED_EDGE ( 'NONE', *, *, #22, .T. ) ;
#66 = CALENDAR_DATE ( 2018, 21, 12 ) ;
#67 = EDGE_CURVE ( 'NONE', #36, #129, #168, .T. ) ;
#68 = CARTESIAN_POINT ( 'NONE',  ( 9.992007221626412800E-016, 4.884981308350691100E-015, 1.246557257122760100 ) ) ;
#69 = CARTESIAN_POINT ( 'NONE',  ( -8.687665964349377700E-014, -25.39999999999993100, 1.246557257122726800 ) ) ;
#70 = CARTESIAN_POINT ( 'NONE',  ( 9.992007221626412800E-016, 4.884981308350691100E-015, 5.200000000000001100 ) ) ;
#71 = CARTESIAN_POINT ( 'NONE',  ( -1.457167719820518000E-013, 8.596138575369069600, -0.4269439361915432500 ) ) ;
#72 = PERSON_AND_ORGANIZATION ( #30, #89 ) ;
#73 = CARTESIAN_POINT ( 'NONE',  ( -25.59396227995794600, 8.596138575369067800, 0.8366810817262945200 ) ) ;
#74 = CARTESIAN_POINT ( 'NONE',  ( -16.97486005625414100, 25.70380444280797900, 1.695415738497213500 ) ) ;
#75 = APPROVAL_PERSON_ORGANIZATION ( #11, #163, #160 ) ;
#76 = DATE_TIME_ROLE ( 'creation_date' ) ;
#77 = ORIENTED_EDGE ( 'NONE', *, *, #85, .T. ) ;
#78 = PERSON_AND_ORGANIZATION_ROLE ( 'classification_officer' ) ;
#79 = EDGE_CURVE ( 'NONE', #107, #157, #112, .T. ) ;
#80 = VERTEX_POINT ( 'NONE', #117 ) ;
#81 = UNCERTAINTY_MEASURE_WITH_UNIT (LENGTH_MEASURE( 1.000000000000000100E-005 ), #23, 'distance_accuracy_value', 'NONE');
#82 = FACE_OUTER_BOUND ( 'NONE', #185, .T. ) ;
#83 = LOCAL_TIME ( 9, 2, 17.00000000000000000, #51 ) ;
#84 = ORIENTED_EDGE ( 'NONE', *, *, #183, .F. ) ;
#85 = EDGE_CURVE ( 'NONE', #43, #157, #152, .T. ) ;
#86 = CARTESIAN_POINT ( 'NONE',  ( -8.686985025509879900E-014, -25.70380444280801400, 1.276629424676323200 ) ) ;
#87 = DIRECTION ( 'NONE',  ( 0.0000000000000000000, 0.0000000000000000000, 1.000000000000000000 ) ) ;
#88 = AXIS2_PLACEMENT_3D ( 'NONE', #37, #53, #174 ) ;
#89 = ORGANIZATION ( 'UNSPECIFIED', 'UNSPECIFIED', '' ) ;
#90 = EDGE_LOOP ( 'NONE', ( #84, #228, #178 ) ) ;
#91 = APPLICATION_PROTOCOL_DEFINITION ( 'international standard', 'config_control_design', 1994, #159 ) ;
#92 = APPROVAL_ROLE ( '' ) ;
#93 = PERSON_AND_ORGANIZATION_ROLE ( 'creator' ) ;
#94 = CIRCLE ( 'NONE', #131, 259.3999999999999800 ) ;
#95 = ORIENTED_EDGE ( 'NONE', *, *, #223, .F. ) ;
#96 = CALENDAR_DATE ( 2018, 21, 12 ) ;
#97 = PERSON_AND_ORGANIZATION ( #30, #89 ) ;
#98 = EDGE_CURVE ( 'NONE', #129, #80, #136, .T. ) ;
#99 = CARTESIAN_POINT ( 'NONE',  ( 9.992007221626412800E-016, 4.884981308350691100E-015, 1.246557257122760100 ) ) ;
#100 = CARTESIAN_POINT ( 'NONE',  ( 8.548645749219007300, -8.596138575369101500, -0.4269439361915643400 ) ) ;
#101 = APPROVAL_DATE_TIME ( #189, #163 ) ;
#102 = CARTESIAN_POINT ( 'NONE',  ( -8.725559872676673100E-014, -8.596138575369101500, -0.4269439361915623500 ) ) ;
#103 = CARTESIAN_POINT ( 'NONE',  ( -17.08689144392678800, 8.596138575369067800, -0.005393699032267313000 ) ) ;
#104 = CARTESIAN_POINT ( 'NONE',  ( 25.39999999999999900, 4.884981308350691100E-015, 1.246557257122760100 ) ) ;
#105 = AXIS2_PLACEMENT_3D ( 'NONE', #220, #179, #162 ) ;
#106 = CARTESIAN_POINT ( 'NONE',  ( 16.97486005625393800, -25.70380444280801400, 1.695415738497187500 ) ) ;
#107 = VERTEX_POINT ( 'NONE', #5 ) ;
#108 = CARTESIAN_POINT ( 'NONE',  ( -25.42615369290894000, -25.70380444280801400, 2.531969397609856700 ) ) ;
#109 = SECURITY_CLASSIFICATION_LEVEL ( 'unclassified' ) ;
#110 = APPROVAL_ROLE ( '' ) ;
#111 = PRODUCT_DEFINITION_FORMATION_WITH_SPECIFIED_SOURCE ( 'ANY', '', #26, .NOT_KNOWN. ) ;
#112 = CIRCLE ( 'NONE', #125, 25.39999999999999900 ) ;
#113 = ORIENTED_EDGE ( 'NONE', *, *, #79, .F. ) ;
#114 = COORDINATED_UNIVERSAL_TIME_OFFSET ( 2, 0, .AHEAD. ) ;
#115 = PERSON_AND_ORGANIZATION ( #30, #89 ) ;
#116 = DIRECTION ( 'NONE',  ( -0.0000000000000000000, -0.0000000000000000000, -1.000000000000000000 ) ) ;
#117 = CARTESIAN_POINT ( 'NONE',  ( -8.687665964349377700E-014, 25.39999999999991000, 1.246557257122726800 ) ) ;
#118 = CARTESIAN_POINT ( 'NONE',  ( 17.08689144392658900, -8.596138575369101500, -0.005393699032291923500 ) ) ;
#119 = CARTESIAN_POINT ( 'NONE',  ( -16.97486005625414100, -25.70380444280801400, 1.695415738497213500 ) ) ;
#120 = COORDINATED_UNIVERSAL_TIME_OFFSET ( 2, 0, .AHEAD. ) ;
#121 = ORIENTED_EDGE ( 'NONE', *, *, #140, .T. ) ;
#122 = DIRECTION ( 'NONE',  ( 0.0000000000000000000, -1.000000000000000000, -4.279965399480172100E-016 ) ) ;
#123 = DIRECTION ( 'NONE',  ( 1.000000000000000000, 0.0000000000000000000, -0.0000000000000000000 ) ) ;
#124 = DIRECTION ( 'NONE',  ( -0.0000000000000000000, -0.0000000000000000000, -1.000000000000000000 ) ) ;
#125 = AXIS2_PLACEMENT_3D ( 'NONE', #70, #58, #39 ) ;
#126 = APPROVAL_STATUS ( 'not_yet_approved' ) ;
#127 = DATE_AND_TIME ( #96, #193 ) ;
#128 = CC_DESIGN_PERSON_AND_ORGANIZATION_ASSIGNMENT ( #56, #61, ( #26 ) ) ;
#129 = VERTEX_POINT ( 'NONE', #196 ) ;
#130 = FACE_OUTER_BOUND ( 'NONE', #167, .T. ) ;
#131 = AXIS2_PLACEMENT_3D ( 'NONE', #170, #171, #122 ) ;
#132 =( GEOMETRIC_REPRESENTATION_CONTEXT ( 3 ) GLOBAL_UNCERTAINTY_ASSIGNED_CONTEXT ( ( #81 ) ) GLOBAL_UNIT_ASSIGNED_CONTEXT ( ( #23, #60, #217 ) ) REPRESENTATION_CONTEXT ( 'NONE', 'WORKASPACE' ) );
#133 = AXIS2_PLACEMENT_3D ( 'NONE', #177, #8, #201 ) ;
#134 = ADVANCED_FACE ( 'NONE', ( #146 ), #158, .T. ) ;
#135 = CARTESIAN_POINT ( 'NONE',  ( 25.42615369290875900, 25.70380444280797900, 2.531969397609828300 ) ) ;
#136 = CIRCLE ( 'NONE', #169, 25.39999999999999900 ) ;
#137 = CARTESIAN_POINT ( 'NONE',  ( 25.59396227995776500, 8.596138575369067800, 0.8366810817262658700 ) ) ;
#138 = CARTESIAN_POINT ( 'NONE',  ( 9.992007221626412800E-016, 4.884981308350691100E-015, 5.200000000000001100 ) ) ;
#139 = DIRECTION ( 'NONE',  ( 1.000000000000000000, 0.0000000000000000000, 0.0000000000000000000 ) ) ;
#140 = EDGE_CURVE ( 'NONE', #129, #107, #63, .T. ) ;
#141 = FACE_OUTER_BOUND ( 'NONE', #90, .T. ) ;
#142 = CARTESIAN_POINT ( 'NONE',  ( 9.992007221626412800E-016, 4.884981308350691100E-015, 1.246557257122760100 ) ) ;
#143 = ORIENTED_EDGE ( 'NONE', *, *, #183, .T. ) ;
#144 = CARTESIAN_POINT ( 'NONE',  ( 25.39999999999999900, 4.884981308350691100E-015, 5.200000000000001100 ) ) ;
#145 = APPROVAL_STATUS ( 'not_yet_approved' ) ;
#146 = FACE_OUTER_BOUND ( 'NONE', #149, .T. ) ;
#147 = DATE_AND_TIME ( #66, #164 ) ;
#148 = CC_DESIGN_APPROVAL ( #16, ( #14 ) ) ;
#149 = EDGE_LOOP ( 'NONE', ( #165, #113 ) ) ;
#150 = AXIS2_PLACEMENT_3D ( 'NONE', #138, #15, #229 ) ;
#151 = DATE_AND_TIME ( #182, #210 ) ;
#152 = LINE ( 'NONE', #226, #25 ) ;
#153 = DIRECTION ( 'NONE',  ( 0.0000000000000000000, 0.0000000000000000000, 1.000000000000000000 ) ) ;
#154 = CARTESIAN_POINT ( 'NONE',  ( -8.725559872676673100E-014, 8.596138575369067800, -0.4269439361915638400 ) ) ;
#155 = CARTESIAN_POINT ( 'NONE',  ( 25.59396227995776500, -8.596138575369101500, 0.8366810817262674300 ) ) ;
#156 = LOCAL_TIME ( 9, 2, 17.00000000000000000, #120 ) ;
#157 = VERTEX_POINT ( 'NONE', #144 ) ;
#158 = PLANE ( 'NONE',  #203 ) ;
#159 = APPLICATION_CONTEXT ( 'configuration controlled 3d designs of mechanical parts and assemblies' ) ;
#160 = APPROVAL_ROLE ( '' ) ;
#161 = APPROVAL_PERSON_ORGANIZATION ( #10, #166, #92 ) ;
#162 = DIRECTION ( 'NONE',  ( 1.000000000000000000, 0.0000000000000000000, 0.0000000000000000000 ) ) ;
#163 = APPROVAL ( #145, 'UNSPECIFIED' ) ;
#164 = LOCAL_TIME ( 9, 2, 17.00000000000000000, #42 ) ;
#165 = ORIENTED_EDGE ( 'NONE', *, *, #52, .F. ) ;
#166 = APPROVAL ( #200, 'UNSPECIFIED' ) ;
#167 = EDGE_LOOP ( 'NONE', ( #219, #143, #65 ) ) ;
#168 = CIRCLE ( 'NONE', #88, 25.39999999999999900 ) ;
#169 = AXIS2_PLACEMENT_3D ( 'NONE', #142, #124, #24 ) ;
#170 = CARTESIAN_POINT ( 'NONE',  ( -2.842170943040400100E-014, -2.842170943040400100E-014, 259.3999999999999800 ) ) ;
#171 = DIRECTION ( 'NONE',  ( 1.000000000000000000, 1.014630051716460000E-031, -2.264349047295540000E-016 ) ) ;
#172 = PERSON_AND_ORGANIZATION ( #30, #89 ) ;
#173 = CARTESIAN_POINT ( 'NONE',  ( -8.686985025509879900E-014, 25.70380444280797900, 1.276629424676323200 ) ) ;
#174 = DIRECTION ( 'NONE',  ( 1.000000000000000000, 8.881784197001252300E-016, 0.0000000000000000000 ) ) ;
#175 = CARTESIAN_POINT ( 'NONE',  ( -1.457167719820518000E-013, -25.70380444280801400, 1.276629424676343900 ) ) ;
#176 = CC_DESIGN_APPROVAL ( #166, ( #227 ) ) ;
#177 = CARTESIAN_POINT ( 'NONE',  ( 0.0000000000000000000, 0.0000000000000000000, 0.0000000000000000000 ) ) ;
#178 = ORIENTED_EDGE ( 'NONE', *, *, #98, .T. ) ;
#179 = DIRECTION ( 'NONE',  ( -0.0000000000000000000, -0.0000000000000000000, -1.000000000000000000 ) ) ;
#180 = CYLINDRICAL_SURFACE ( 'NONE', #188, 25.39999999999999900 ) ;
#181 = ORIENTED_EDGE ( 'NONE', *, *, #67, .F. ) ;
#182 = CALENDAR_DATE ( 2018, 21, 12 ) ;
#183 = EDGE_CURVE ( 'NONE', #36, #80, #94, .T. ) ;
#184 = VECTOR ( 'NONE', #153, 1000.000000000000000 ) ;
#185 = EDGE_LOOP ( 'NONE', ( #57, #181, #95, #77, #211 ) ) ;
#186 =( BOUNDED_SURFACE ( )  B_SPLINE_SURFACE ( 3, 3, ( 
 ( #108, #119, #235, #175 ),
 ( #195, #33, #38, #231 ),
 ( #73, #103, #214, #71 ),
 ( #34, #74, #194, #232 ) ),
 .UNSPECIFIED., .F., .F., .F. ) 
 B_SPLINE_SURFACE_WITH_KNOTS ( ( 4, 4 ),
 ( 4, 4 ),
 ( 0.0000000000000000000, 1.000000000000000000 ),
 ( 0.0000000000000000000, 1.000000000000000000 ),
 .UNSPECIFIED. ) 
 GEOMETRIC_REPRESENTATION_ITEM ( )  RATIONAL_B_SPLINE_SURFACE ( (
 ( 1.000000000000000000, 0.9991889511066741600, 0.9991889511066741600, 1.000000000000000000),
 ( 0.9967190197258384300, 0.9959106318679329400, 0.9959106318679329400, 0.9967190197258384300),
 ( 0.9967190197258384300, 0.9959106318679329400, 0.9959106318679329400, 0.9967190197258384300),
 ( 1.000000000000000000, 0.9991889511066741600, 0.9991889511066741600, 1.000000000000000000) ) ) 
 REPRESENTATION_ITEM ( '' )  SURFACE ( )  );
#187 = DIRECTION ( 'NONE',  ( 1.000000000000000000, 0.0000000000000000000, 0.0000000000000000000 ) ) ;
#188 = AXIS2_PLACEMENT_3D ( 'NONE', #68, #213, #187 ) ;
#189 = DATE_AND_TIME ( #224, #156 ) ;
#190 = ORIENTED_EDGE ( 'NONE', *, *, #22, .F. ) ;
#191 = ADVANCED_FACE ( 'NONE', ( #141 ), #186, .T. ) ;
#192 = CARTESIAN_POINT ( 'NONE',  ( -25.39999999999999900, 7.995584178184967200E-015, 1.246557257122760100 ) ) ;
#193 = LOCAL_TIME ( 9, 2, 17.00000000000000000, #114 ) ;
#194 = CARTESIAN_POINT ( 'NONE',  ( -8.492595961043896600, 25.70380444280797900, 1.276629424676347900 ) ) ;
#195 = CARTESIAN_POINT ( 'NONE',  ( -25.59396227995795000, -8.596138575369101500, 0.8366810817262961800 ) ) ;
#196 = CARTESIAN_POINT ( 'NONE',  ( -25.39999999999999900, 7.995584178184967200E-015, 1.246557257122760100 ) ) ;
#197 = SHAPE_DEFINITION_REPRESENTATION ( #40, #46 ) ;
#198 = DIRECTION ( 'NONE',  ( 0.0000000000000000000, 0.0000000000000000000, 1.000000000000000000 ) ) ;
#199 = DATE_TIME_ROLE ( 'classification_date' ) ;
#200 = APPROVAL_STATUS ( 'not_yet_approved' ) ;
#201 = DIRECTION ( 'NONE',  ( 1.000000000000000000, 0.0000000000000000000, 0.0000000000000000000 ) ) ;
#202 = APPROVAL_DATE_TIME ( #147, #166 ) ;
#203 = AXIS2_PLACEMENT_3D ( 'NONE', #2, #215, #123 ) ;
#204 = APPROVAL_PERSON_ORGANIZATION ( #72, #16, #110 ) ;
#205 = CIRCLE ( 'NONE', #150, 25.39999999999999900 ) ;
#206 = ORIENTED_EDGE ( 'NONE', *, *, #79, .T. ) ;
#207 = CARTESIAN_POINT ( 'NONE',  ( 8.492595961043678100, -25.70380444280801400, 1.276629424676321500 ) ) ;
#208 = ADVANCED_FACE ( 'NONE', ( #130 ), #31, .T. ) ;
#209 = CARTESIAN_POINT ( 'NONE',  ( 25.42615369290875500, -25.70380444280801400, 2.531969397609828300 ) ) ;
#210 = LOCAL_TIME ( 9, 2, 17.00000000000000000, #13 ) ;
#211 = ORIENTED_EDGE ( 'NONE', *, *, #52, .T. ) ;
#212 = MANIFOLD_SOLID_BREP ( 'Imported1', #47 ) ;
#213 = DIRECTION ( 'NONE',  ( 0.0000000000000000000, 0.0000000000000000000, 1.000000000000000000 ) ) ;
#214 = CARTESIAN_POINT ( 'NONE',  ( -8.548645749219220500, 8.596138575369069600, -0.4269439361915393600 ) ) ;
#215 = DIRECTION ( 'NONE',  ( 0.0000000000000000000, 0.0000000000000000000, 1.000000000000000000 ) ) ;
#216 = AXIS2_PLACEMENT_3D ( 'NONE', #20, #87, #139 ) ;
#217 =( NAMED_UNIT ( * ) SI_UNIT ( $, .STERADIAN. ) SOLID_ANGLE_UNIT ( ) );
#218 = ADVANCED_FACE ( 'NONE', ( #17 ), #222, .T. ) ;
#219 = ORIENTED_EDGE ( 'NONE', *, *, #223, .T. ) ;
#220 = CARTESIAN_POINT ( 'NONE',  ( 9.992007221626412800E-016, 4.884981308350691100E-015, 1.246557257122760100 ) ) ;
#221 = APPROVAL_DATE_TIME ( #32, #16 ) ;
#222 = CYLINDRICAL_SURFACE ( 'NONE', #216, 25.39999999999999900 ) ;
#223 = EDGE_CURVE ( 'NONE', #43, #36, #35, .T. ) ;
#224 = CALENDAR_DATE ( 2018, 21, 12 ) ;
#225 = CC_DESIGN_PERSON_AND_ORGANIZATION_ASSIGNMENT ( #172, #3, ( #111 ) ) ;
#226 = CARTESIAN_POINT ( 'NONE',  ( 25.39999999999999900, 4.884981308350691100E-015, 1.246557257122760100 ) ) ;
#227 = PRODUCT_DEFINITION ( 'UNKNOWN', '', #111, #230 ) ;
#228 = ORIENTED_EDGE ( 'NONE', *, *, #67, .T. ) ;
#229 = DIRECTION ( 'NONE',  ( 1.000000000000000000, 0.0000000000000000000, 0.0000000000000000000 ) ) ;
#230 = DESIGN_CONTEXT ( 'detailed design', #159, 'design' ) ;
#231 = CARTESIAN_POINT ( 'NONE',  ( -1.491862189340054100E-013, -8.596138575369099800, -0.4269439361915419700 ) ) ;
#232 = CARTESIAN_POINT ( 'NONE',  ( -1.457167719820518000E-013, 25.70380444280797900, 1.276629424676343900 ) ) ;
#233 = CIRCLE ( 'NONE', #9, 25.39999999999999900 ) ;
#234 = CARTESIAN_POINT ( 'NONE',  ( 17.08689144392658900, 8.596138575369067800, -0.005393699032293442300 ) ) ;
#235 = CARTESIAN_POINT ( 'NONE',  ( -8.492595961043896600, -25.70380444280801400, 1.276629424676347900 ) ) ;
ENDSEC;
END-ISO-10303-21;
