ISO-10303-21;
HEADER;
FILE_DESCRIPTION (( 'STEP AP203' ),
    '1' );
FILE_NAME ('110-0523E BK7 pl-cx 50.8 F400.STEP',
    '2018-12-21T07:02:35',
    ( '' ),
    ( '' ),
    'SwSTEP 2.0',
    'SolidWorks 2017',
    '' );
FILE_SCHEMA (( 'CONFIG_CONTROL_DESIGN' ));
ENDSEC;

DATA;
#1 = PRODUCT_DEFINITION ( 'UNKNOWN', '', #115, #224 ) ;
#2 = LOCAL_TIME ( 9, 2, 35.00000000000000000, #170 ) ;
#3 = CIRCLE ( 'NONE', #95, 25.39999999999999900 ) ;
#4 = CARTESIAN_POINT ( 'NONE',  ( 9.992007221626412800E-016, 4.884981308350691100E-015, 1.560470040353830100 ) ) ;
#5 = CARTESIAN_POINT ( 'NONE',  ( 9.992007221626412800E-016, 4.884981308350691100E-015, 1.560470040353830100 ) ) ;
#6 = LOCAL_TIME ( 9, 2, 35.00000000000000000, #134 ) ;
#7 = DIRECTION ( 'NONE',  ( 1.000000000000000000, 0.0000000000000000000, 0.0000000000000000000 ) ) ;
#8 = CARTESIAN_POINT ( 'NONE',  ( 7.636429912273100900E-014, 8.611964622404508800, -0.5354484312052078000 ) ) ;
#9 = CC_DESIGN_PERSON_AND_ORGANIZATION_ASSIGNMENT ( #88, #112, ( #156 ) ) ;
#10 = APPROVAL_PERSON_ORGANIZATION ( #153, #235, #16 ) ;
#11 = LINE ( 'NONE', #47, #200 ) ;
#12 = CARTESIAN_POINT ( 'NONE',  ( 8.478503977550124300, 25.70324075934381700, 1.598097593860955200 ) ) ;
#13 = AXIS2_PLACEMENT_3D ( 'NONE', #109, #211, #30 ) ;
#14 = DIRECTION ( 'NONE',  ( 1.000000000000000000, 0.0000000000000000000, 0.0000000000000000000 ) ) ;
#15 =( BOUNDED_SURFACE ( )  B_SPLINE_SURFACE ( 3, 3, ( 
 ( #66, #105, #214, #86 ),
 ( #83, #227, #122, #62 ),
 ( #8, #215, #185, #191 ),
 ( #139, #12, #87, #152 ) ),
 .UNSPECIFIED., .F., .F., .F. ) 
 B_SPLINE_SURFACE_WITH_KNOTS ( ( 4, 4 ),
 ( 4, 4 ),
 ( 0.0000000000000000000, 1.000000000000000000 ),
 ( 0.0000000000000000000, 1.000000000000000000 ),
 .UNSPECIFIED. ) 
 GEOMETRIC_REPRESENTATION_ITEM ( )  RATIONAL_B_SPLINE_SURFACE ( (
 ( 1.000000000000000000, 0.9987303347395264400, 0.9987303347395264400, 1.000000000000000000),
 ( 0.9948655498992418100, 0.9936024036716928400, 0.9936024036716928400, 0.9948655498992418100),
 ( 0.9948655498992418100, 0.9936024036716928400, 0.9936024036716928400, 0.9948655498992418100),
 ( 1.000000000000000000, 0.9987303347395264400, 0.9987303347395264400, 1.000000000000000000) ) ) 
 REPRESENTATION_ITEM ( '' )  SURFACE ( )  );
#16 = APPROVAL_ROLE ( '' ) ;
#17 = CALENDAR_DATE ( 2018, 21, 12 ) ;
#18 = CIRCLE ( 'NONE', #13, 25.39999999999999900 ) ;
#19 = ORIENTED_EDGE ( 'NONE', *, *, #27, .T. ) ;
#20 = VERTEX_POINT ( 'NONE', #180 ) ;
#21 = CC_DESIGN_SECURITY_CLASSIFICATION ( #156, ( #115 ) ) ;
#22 = ORIENTED_EDGE ( 'NONE', *, *, #41, .T. ) ;
#23 = CARTESIAN_POINT ( 'NONE',  ( 2.775557561562891400E-014, -8.611964622404483900, -0.5354484312051993600 ) ) ;
#24 = CARTESIAN_POINT ( 'NONE',  ( -25.35483697291294900, 25.70324075934381000, 3.165162890553074900 ) ) ;
#25 = AXIS2_PLACEMENT_3D ( 'NONE', #51, #142, #231 ) ;
#26 = ADVANCED_FACE ( 'NONE', ( #225 ), #92, .T. ) ;
#27 = EDGE_CURVE ( 'NONE', #72, #73, #127, .T. ) ;
#28 = DIRECTION ( 'NONE',  ( 1.000000000000000000, 0.0000000000000000000, 0.0000000000000000000 ) ) ;
#29 = FACE_OUTER_BOUND ( 'NONE', #128, .T. ) ;
#30 = DIRECTION ( 'NONE',  ( 1.000000000000000000, 0.0000000000000000000, 0.0000000000000000000 ) ) ;
#31 = CC_DESIGN_APPROVAL ( #60, ( #156 ) ) ;
#32 = DIRECTION ( 'NONE',  ( 0.0000000000000000000, 0.0000000000000000000, 1.000000000000000000 ) ) ;
#33 = APPROVAL_PERSON_ORGANIZATION ( #97, #60, #219 ) ;
#34 = MECHANICAL_CONTEXT ( 'NONE', #53, 'mechanical' ) ;
#35 = ORIENTED_EDGE ( 'NONE', *, *, #46, .T. ) ;
#36 =( NAMED_UNIT ( * ) PLANE_ANGLE_UNIT ( ) SI_UNIT ( $, .RADIAN. ) );
#37 = CIRCLE ( 'NONE', #202, 25.39999999999999900 ) ;
#38 = EDGE_LOOP ( 'NONE', ( #183, #75 ) ) ;
#39 = CC_DESIGN_APPROVAL ( #235, ( #1 ) ) ;
#40 = UNCERTAINTY_MEASURE_WITH_UNIT (LENGTH_MEASURE( 1.000000000000000100E-005 ), #175, 'distance_accuracy_value', 'NONE');
#41 = EDGE_CURVE ( 'NONE', #178, #72, #3, .T. ) ;
#42 = CARTESIAN_POINT ( 'NONE',  ( -17.11640107972918700, 8.611964622404505200, -0.007009772635350975900 ) ) ;
#43 = DATE_AND_TIME ( #17, #234 ) ;
#44 = ADVANCED_FACE ( 'NONE', ( #29 ), #221, .T. ) ;
#45 = CARTESIAN_POINT ( 'NONE',  ( -25.39999999999999900, 7.995584178184967200E-015, 1.560470040353830100 ) ) ;
#46 = EDGE_CURVE ( 'NONE', #20, #119, #37, .T. ) ;
#47 = CARTESIAN_POINT ( 'NONE',  ( -25.39999999999999900, 7.995584178184967200E-015, 1.560470040353830100 ) ) ;
#48 = CARTESIAN_POINT ( 'NONE',  ( 8.538314689515384100E-014, -25.39999999999998400, 1.560470040353821000 ) ) ;
#49 = COORDINATED_UNIVERSAL_TIME_OFFSET ( 2, 0, .AHEAD. ) ;
#50 = ORIENTED_EDGE ( 'NONE', *, *, #27, .F. ) ;
#51 = CARTESIAN_POINT ( 'NONE',  ( 9.992007221626412800E-016, 4.884981308350691100E-015, 5.500000000000000000 ) ) ;
#52 = COORDINATED_UNIVERSAL_TIME_OFFSET ( 2, 0, .AHEAD. ) ;
#53 = APPLICATION_CONTEXT ( 'configuration controlled 3d designs of mechanical parts and assemblies' ) ;
#54 = APPROVAL_DATE_TIME ( #108, #235 ) ;
#55 = PERSON_AND_ORGANIZATION ( #103, #58 ) ;
#56 = EDGE_CURVE ( 'NONE', #73, #178, #216, .T. ) ;
#57 = CARTESIAN_POINT ( 'NONE',  ( -16.94086066215862000, 25.70324075934381400, 2.121116752014006400 ) ) ;
#58 = ORGANIZATION ( 'UNSPECIFIED', 'UNSPECIFIED', '' ) ;
#59 = CC_DESIGN_PERSON_AND_ORGANIZATION_ASSIGNMENT ( #186, #93, ( #1 ) ) ;
#60 = APPROVAL ( #110, 'UNSPECIFIED' ) ;
#61 = SHAPE_DEFINITION_REPRESENTATION ( #212, #192 ) ;
#62 = CARTESIAN_POINT ( 'NONE',  ( 25.61756262531138600, -8.611964622404476800, 1.047854723883065100 ) ) ;
#63 = ADVANCED_FACE ( 'NONE', ( #162 ), #15, .T. ) ;
#64 = DIRECTION ( 'NONE',  ( -0.0000000000000000000, -0.0000000000000000000, -1.000000000000000000 ) ) ;
#65 = DIRECTION ( 'NONE',  ( 1.000000000000000000, 0.0000000000000000000, -0.0000000000000000000 ) ) ;
#66 = CARTESIAN_POINT ( 'NONE',  ( 8.545897168380380400E-014, -25.70324075934379200, 1.598097593860953200 ) ) ;
#67 = CC_DESIGN_APPROVAL ( #138, ( #115 ) ) ;
#68 = APPROVAL_STATUS ( 'not_yet_approved' ) ;
#69 = FACE_OUTER_BOUND ( 'NONE', #38, .T. ) ;
#70 = DATE_TIME_ROLE ( 'creation_date' ) ;
#71 = PERSON_AND_ORGANIZATION ( #103, #58 ) ;
#72 = VERTEX_POINT ( 'NONE', #78 ) ;
#73 = VERTEX_POINT ( 'NONE', #48 ) ;
#74 = CC_DESIGN_DATE_AND_TIME_ASSIGNMENT ( #230, #70, ( #1 ) ) ;
#75 = ORIENTED_EDGE ( 'NONE', *, *, #46, .F. ) ;
#76 = PRODUCT_RELATED_PRODUCT_CATEGORY ( 'detail', '', ( #201 ) ) ;
#77 = EDGE_CURVE ( 'NONE', #167, #178, #18, .T. ) ;
#78 = CARTESIAN_POINT ( 'NONE',  ( 25.39999999999999900, 4.884981308350691100E-015, 1.560470040353830100 ) ) ;
#79 = CARTESIAN_POINT ( 'NONE',  ( 3.469446951953614200E-014, -25.70324075934379200, 1.598097593860959800 ) ) ;
#80 = EDGE_LOOP ( 'NONE', ( #19, #89, #22 ) ) ;
#81 = DIRECTION ( 'NONE',  ( 1.000000000000000000, 0.0000000000000000000, 0.0000000000000000000 ) ) ;
#82 = CC_DESIGN_PERSON_AND_ORGANIZATION_ASSIGNMENT ( #71, #195, ( #115 ) ) ;
#83 = CARTESIAN_POINT ( 'NONE',  ( 8.118842304339922000E-014, -8.611964622404483900, -0.5354484312052060200 ) ) ;
#84 = DIRECTION ( 'NONE',  ( -0.0000000000000000000, -0.0000000000000000000, -1.000000000000000000 ) ) ;
#85 = DIRECTION ( 'NONE',  ( 1.000000000000000000, 0.0000000000000000000, 0.0000000000000000000 ) ) ;
#86 = CARTESIAN_POINT ( 'NONE',  ( 25.35483697291282500, -25.70324075934378500, 3.165162890553036700 ) ) ;
#87 = CARTESIAN_POINT ( 'NONE',  ( 16.94086066215855300, 25.70324075934381700, 2.121116752013985100 ) ) ;
#88 = PERSON_AND_ORGANIZATION ( #103, #58 ) ;
#89 = ORIENTED_EDGE ( 'NONE', *, *, #56, .T. ) ;
#90 = ORIENTED_EDGE ( 'NONE', *, *, #113, .T. ) ;
#91 = PERSON_AND_ORGANIZATION_ROLE ( 'design_owner' ) ;
#92 =( BOUNDED_SURFACE ( )  B_SPLINE_SURFACE ( 3, 3, ( 
 ( #184, #165, #133, #79 ),
 ( #203, #205, #98, #23 ),
 ( #146, #42, #164, #166 ),
 ( #24, #57, #181, #96 ) ),
 .UNSPECIFIED., .F., .F., .F. ) 
 B_SPLINE_SURFACE_WITH_KNOTS ( ( 4, 4 ),
 ( 4, 4 ),
 ( 0.0000000000000000000, 1.000000000000000000 ),
 ( 0.0000000000000000000, 1.000000000000000000 ),
 .UNSPECIFIED. ) 
 GEOMETRIC_REPRESENTATION_ITEM ( )  RATIONAL_B_SPLINE_SURFACE ( (
 ( 1.000000000000000000, 0.9987303347395263300, 0.9987303347395263300, 1.000000000000000000),
 ( 0.9948655498992418100, 0.9936024036716927200, 0.9936024036716927200, 0.9948655498992418100),
 ( 0.9948655498992418100, 0.9936024036716927200, 0.9936024036716927200, 0.9948655498992418100),
 ( 1.000000000000000000, 0.9987303347395263300, 0.9987303347395263300, 1.000000000000000000) ) ) 
 REPRESENTATION_ITEM ( '' )  SURFACE ( )  );
#93 = PERSON_AND_ORGANIZATION_ROLE ( 'creator' ) ;
#94 = DATE_AND_TIME ( #143, #6 ) ;
#95 = AXIS2_PLACEMENT_3D ( 'NONE', #4, #207, #100 ) ;
#96 = CARTESIAN_POINT ( 'NONE',  ( 2.081668171172168500E-014, 25.70324075934381700, 1.598097593860960300 ) ) ;
#97 = PERSON_AND_ORGANIZATION ( #103, #58 ) ;
#98 = CARTESIAN_POINT ( 'NONE',  ( -8.566357845088099100, -8.611964622404487500, -0.5354484312051992500 ) ) ;
#99 = EDGE_LOOP ( 'NONE', ( #131, #111, #206 ) ) ;
#100 = DIRECTION ( 'NONE',  ( 1.000000000000000000, 0.0000000000000000000, 0.0000000000000000000 ) ) ;
#101 = AXIS2_PLACEMENT_3D ( 'NONE', #107, #120, #7 ) ;
#102 = DIRECTION ( 'NONE',  ( 2.800826601236829100E-016, -1.000000000000000000, 0.0000000000000000000 ) ) ;
#103 = PERSON ( 'UNSPECIFIED', 'UNSPECIFIED', 'UNSPECIFIED', ('UNSPECIFIED'), ('UNSPECIFIED'), ('UNSPECIFIED') ) ;
#104 = CALENDAR_DATE ( 2018, 21, 12 ) ;
#105 = CARTESIAN_POINT ( 'NONE',  ( 8.478503977550138500, -25.70324075934378900, 1.598097593860955200 ) ) ;
#106 = DIRECTION ( 'NONE',  ( 1.000000000000000000, 2.800826601236830100E-016, 2.420484202686870100E-016 ) ) ;
#107 = CARTESIAN_POINT ( 'NONE',  ( 9.992007221626412800E-016, 4.884981308350691100E-015, 1.560470040353830100 ) ) ;
#108 = DATE_AND_TIME ( #226, #147 ) ;
#109 = CARTESIAN_POINT ( 'NONE',  ( 9.992007221626412800E-016, 4.884981308350691100E-015, 1.560470040353830100 ) ) ;
#110 = APPROVAL_STATUS ( 'not_yet_approved' ) ;
#111 = ORIENTED_EDGE ( 'NONE', *, *, #172, .T. ) ;
#112 = PERSON_AND_ORGANIZATION_ROLE ( 'classification_officer' ) ;
#113 = EDGE_CURVE ( 'NONE', #167, #20, #11, .T. ) ;
#114 = ORIENTED_EDGE ( 'NONE', *, *, #41, .F. ) ;
#115 = PRODUCT_DEFINITION_FORMATION_WITH_SPECIFIED_SOURCE ( 'ANY', '', #201, .NOT_KNOWN. ) ;
#116 = MANIFOLD_SOLID_BREP ( 'Imported1', #155 ) ;
#117 = DIRECTION ( 'NONE',  ( -0.0000000000000000000, -0.0000000000000000000, -1.000000000000000000 ) ) ;
#118 = VECTOR ( 'NONE', #229, 1000.000000000000000 ) ;
#119 = VERTEX_POINT ( 'NONE', #189 ) ;
#120 = DIRECTION ( 'NONE',  ( 0.0000000000000000000, 0.0000000000000000000, 1.000000000000000000 ) ) ;
#121 = EDGE_CURVE ( 'NONE', #72, #119, #173, .T. ) ;
#122 = CARTESIAN_POINT ( 'NONE',  ( 17.11640107972913000, -8.611964622404482100, -0.007009772635370275500 ) ) ;
#123 = DIRECTION ( 'NONE',  ( 0.0000000000000000000, 0.0000000000000000000, 1.000000000000000000 ) ) ;
#124 = DATE_AND_TIME ( #144, #193 ) ;
#125 = ORIENTED_EDGE ( 'NONE', *, *, #217, .T. ) ;
#126 = SECURITY_CLASSIFICATION_LEVEL ( 'unclassified' ) ;
#127 = CIRCLE ( 'NONE', #161, 25.39999999999999900 ) ;
#128 = EDGE_LOOP ( 'NONE', ( #194, #159, #50, #136, #125 ) ) ;
#129 =( GEOMETRIC_REPRESENTATION_CONTEXT ( 3 ) GLOBAL_UNCERTAINTY_ASSIGNED_CONTEXT ( ( #40 ) ) GLOBAL_UNIT_ASSIGNED_CONTEXT ( ( #175, #36, #130 ) ) REPRESENTATION_CONTEXT ( 'NONE', 'WORKASPACE' ) );
#130 =( NAMED_UNIT ( * ) SI_UNIT ( $, .STERADIAN. ) SOLID_ANGLE_UNIT ( ) );
#131 = ORIENTED_EDGE ( 'NONE', *, *, #56, .F. ) ;
#132 = AXIS2_PLACEMENT_3D ( 'NONE', #190, #32, #65 ) ;
#133 = CARTESIAN_POINT ( 'NONE',  ( -8.478503977550097700, -25.70324075934379600, 1.598097593860960300 ) ) ;
#134 = COORDINATED_UNIVERSAL_TIME_OFFSET ( 2, 0, .AHEAD. ) ;
#135 = EDGE_LOOP ( 'NONE', ( #209, #90, #35, #149, #114 ) ) ;
#136 = ORIENTED_EDGE ( 'NONE', *, *, #121, .T. ) ;
#137 = CARTESIAN_POINT ( 'NONE',  ( 9.992007221626412800E-016, 4.884981308350691100E-015, 1.560470040353830100 ) ) ;
#138 = APPROVAL ( #174, 'UNSPECIFIED' ) ;
#139 = CARTESIAN_POINT ( 'NONE',  ( 7.106090759245081900E-014, 25.70324075934381700, 1.598097593860953200 ) ) ;
#140 = CARTESIAN_POINT ( 'NONE',  ( 7.115494776087076100E-014, 25.39999999999998800, 1.560470040353821000 ) ) ;
#141 = CYLINDRICAL_SURFACE ( 'NONE', #101, 25.39999999999999900 ) ;
#142 = DIRECTION ( 'NONE',  ( -0.0000000000000000000, -0.0000000000000000000, -1.000000000000000000 ) ) ;
#143 = CALENDAR_DATE ( 2018, 21, 12 ) ;
#144 = CALENDAR_DATE ( 2018, 21, 12 ) ;
#145 = PERSON_AND_ORGANIZATION ( #103, #58 ) ;
#146 = CARTESIAN_POINT ( 'NONE',  ( -25.61756262531151400, 8.611964622404501700, 1.047854723883102000 ) ) ;
#147 = LOCAL_TIME ( 9, 2, 35.00000000000000000, #198 ) ;
#148 = CIRCLE ( 'NONE', #199, 25.39999999999999900 ) ;
#149 = ORIENTED_EDGE ( 'NONE', *, *, #121, .F. ) ;
#150 = CARTESIAN_POINT ( 'NONE',  ( 0.0000000000000000000, 0.0000000000000000000, 0.0000000000000000000 ) ) ;
#151 = ADVANCED_FACE ( 'NONE', ( #69 ), #218, .T. ) ;
#152 = CARTESIAN_POINT ( 'NONE',  ( 25.35483697291280700, 25.70324075934382400, 3.165162890553036700 ) ) ;
#153 = PERSON_AND_ORGANIZATION ( #103, #58 ) ;
#154 = DIRECTION ( 'NONE',  ( 0.0000000000000000000, 0.0000000000000000000, 1.000000000000000000 ) ) ;
#155 = CLOSED_SHELL ( 'NONE', ( #63, #168, #26, #44, #151 ) ) ;
#156 = SECURITY_CLASSIFICATION ( '', '', #126 ) ;
#157 = APPLICATION_PROTOCOL_DEFINITION ( 'international standard', 'config_control_design', 1994, #223 ) ;
#158 = AXIS2_PLACEMENT_3D ( 'NONE', #213, #106, #102 ) ;
#159 = ORIENTED_EDGE ( 'NONE', *, *, #172, .F. ) ;
#160 = APPROVAL_PERSON_ORGANIZATION ( #163, #138, #233 ) ;
#161 = AXIS2_PLACEMENT_3D ( 'NONE', #5, #117, #81 ) ;
#162 = FACE_OUTER_BOUND ( 'NONE', #80, .T. ) ;
#163 = PERSON_AND_ORGANIZATION ( #103, #58 ) ;
#164 = CARTESIAN_POINT ( 'NONE',  ( -8.566357845088106200, 8.611964622404508800, -0.5354484312052009100 ) ) ;
#165 = CARTESIAN_POINT ( 'NONE',  ( -16.94086066215860600, -25.70324075934379600, 2.121116752014006400 ) ) ;
#166 = CARTESIAN_POINT ( 'NONE',  ( 2.081668171172168800E-014, 8.611964622404508800, -0.5354484312052011400 ) ) ;
#167 = VERTEX_POINT ( 'NONE', #45 ) ;
#168 = ADVANCED_FACE ( 'NONE', ( #204 ), #141, .T. ) ;
#169 = CARTESIAN_POINT ( 'NONE',  ( 9.992007221626412800E-016, 4.884981308350691100E-015, 1.560470040353830100 ) ) ;
#170 = COORDINATED_UNIVERSAL_TIME_OFFSET ( 2, 0, .AHEAD. ) ;
#171 = CARTESIAN_POINT ( 'NONE',  ( 25.39999999999999900, 4.884981308350691100E-015, 1.560470040353830100 ) ) ;
#172 = EDGE_CURVE ( 'NONE', #73, #167, #148, .T. ) ;
#173 = LINE ( 'NONE', #171, #118 ) ;
#174 = APPROVAL_STATUS ( 'not_yet_approved' ) ;
#175 =( LENGTH_UNIT ( ) NAMED_UNIT ( * ) SI_UNIT ( .MILLI., .METRE. ) );
#176 = DATE_TIME_ROLE ( 'classification_date' ) ;
#177 = APPROVAL_DATE_TIME ( #43, #60 ) ;
#178 = VERTEX_POINT ( 'NONE', #140 ) ;
#179 = CC_DESIGN_DATE_AND_TIME_ASSIGNMENT ( #124, #176, ( #156 ) ) ;
#180 = CARTESIAN_POINT ( 'NONE',  ( -25.39999999999999900, 7.995584178184967200E-015, 5.500000000000000000 ) ) ;
#181 = CARTESIAN_POINT ( 'NONE',  ( -8.478503977550111900, 25.70324075934381400, 1.598097593860960700 ) ) ;
#182 = CIRCLE ( 'NONE', #25, 25.39999999999999900 ) ;
#183 = ORIENTED_EDGE ( 'NONE', *, *, #217, .F. ) ;
#184 = CARTESIAN_POINT ( 'NONE',  ( -25.35483697291293500, -25.70324075934379900, 3.165162890553074900 ) ) ;
#185 = CARTESIAN_POINT ( 'NONE',  ( 17.11640107972913000, 8.611964622404515900, -0.007009772635372010300 ) ) ;
#186 = PERSON_AND_ORGANIZATION ( #103, #58 ) ;
#187 = CARTESIAN_POINT ( 'NONE',  ( 9.992007221626412800E-016, 4.884981308350691100E-015, 5.500000000000000000 ) ) ;
#188 = CC_DESIGN_PERSON_AND_ORGANIZATION_ASSIGNMENT ( #145, #91, ( #201 ) ) ;
#189 = CARTESIAN_POINT ( 'NONE',  ( 25.39999999999999900, 4.884981308350691100E-015, 5.500000000000000000 ) ) ;
#190 = CARTESIAN_POINT ( 'NONE',  ( 0.0000000000000000000, 52.02000000000000300, 5.500000000000000000 ) ) ;
#191 = CARTESIAN_POINT ( 'NONE',  ( 25.61756262531138300, 8.611964622404515900, 1.047854723883063300 ) ) ;
#192 = ADVANCED_BREP_SHAPE_REPRESENTATION ( '110-0523E BK7 pl-cx 50.8 F400', ( #116, #220 ), #129 ) ;
#193 = LOCAL_TIME ( 9, 2, 35.00000000000000000, #52 ) ;
#194 = ORIENTED_EDGE ( 'NONE', *, *, #113, .F. ) ;
#195 = PERSON_AND_ORGANIZATION_ROLE ( 'creator' ) ;
#196 = APPROVAL_DATE_TIME ( #94, #138 ) ;
#197 = CC_DESIGN_PERSON_AND_ORGANIZATION_ASSIGNMENT ( #55, #222, ( #115 ) ) ;
#198 = COORDINATED_UNIVERSAL_TIME_OFFSET ( 2, 0, .AHEAD. ) ;
#199 = AXIS2_PLACEMENT_3D ( 'NONE', #169, #64, #228 ) ;
#200 = VECTOR ( 'NONE', #154, 1000.000000000000000 ) ;
#201 = PRODUCT ( '110-0523E BK7 pl-cx 50.8 F400', '110-0523E BK7 pl-cx 50.8 F400', '', ( #34 ) ) ;
#202 = AXIS2_PLACEMENT_3D ( 'NONE', #187, #84, #85 ) ;
#203 = CARTESIAN_POINT ( 'NONE',  ( -25.61756262531150700, -8.611964622404491000, 1.047854723883103500 ) ) ;
#204 = FACE_OUTER_BOUND ( 'NONE', #135, .T. ) ;
#205 = CARTESIAN_POINT ( 'NONE',  ( -17.11640107972917900, -8.611964622404491000, -0.007009772635349241200 ) ) ;
#206 = ORIENTED_EDGE ( 'NONE', *, *, #77, .T. ) ;
#207 = DIRECTION ( 'NONE',  ( -0.0000000000000000000, -0.0000000000000000000, -1.000000000000000000 ) ) ;
#208 = DIRECTION ( 'NONE',  ( 0.0000000000000000000, 0.0000000000000000000, 1.000000000000000000 ) ) ;
#209 = ORIENTED_EDGE ( 'NONE', *, *, #77, .F. ) ;
#210 = AXIS2_PLACEMENT_3D ( 'NONE', #137, #208, #28 ) ;
#211 = DIRECTION ( 'NONE',  ( -0.0000000000000000000, -0.0000000000000000000, -1.000000000000000000 ) ) ;
#212 = PRODUCT_DEFINITION_SHAPE ( 'NONE', 'NONE',  #1 ) ;
#213 = CARTESIAN_POINT ( 'NONE',  ( 2.842170943040400100E-014, 0.0000000000000000000, 207.5000000000000300 ) ) ;
#214 = CARTESIAN_POINT ( 'NONE',  ( 16.94086066215857400, -25.70324075934378900, 2.121116752013984600 ) ) ;
#215 = CARTESIAN_POINT ( 'NONE',  ( 8.566357845088122100, 8.611964622404514100, -0.5354484312052058000 ) ) ;
#216 = CIRCLE ( 'NONE', #158, 207.5000000000000300 ) ;
#217 = EDGE_CURVE ( 'NONE', #119, #20, #182, .T. ) ;
#218 = PLANE ( 'NONE',  #132 ) ;
#219 = APPROVAL_ROLE ( '' ) ;
#220 = AXIS2_PLACEMENT_3D ( 'NONE', #150, #123, #14 ) ;
#221 = CYLINDRICAL_SURFACE ( 'NONE', #210, 25.39999999999999900 ) ;
#222 = PERSON_AND_ORGANIZATION_ROLE ( 'design_supplier' ) ;
#223 = APPLICATION_CONTEXT ( 'configuration controlled 3d designs of mechanical parts and assemblies' ) ;
#224 = DESIGN_CONTEXT ( 'detailed design', #223, 'design' ) ;
#225 = FACE_OUTER_BOUND ( 'NONE', #99, .T. ) ;
#226 = CALENDAR_DATE ( 2018, 21, 12 ) ;
#227 = CARTESIAN_POINT ( 'NONE',  ( 8.566357845088127500, -8.611964622404485700, -0.5354484312052040200 ) ) ;
#228 = DIRECTION ( 'NONE',  ( 1.000000000000000000, 0.0000000000000000000, 0.0000000000000000000 ) ) ;
#229 = DIRECTION ( 'NONE',  ( 0.0000000000000000000, 0.0000000000000000000, 1.000000000000000000 ) ) ;
#230 = DATE_AND_TIME ( #104, #2 ) ;
#231 = DIRECTION ( 'NONE',  ( 1.000000000000000000, 0.0000000000000000000, 0.0000000000000000000 ) ) ;
#232 = APPLICATION_PROTOCOL_DEFINITION ( 'international standard', 'config_control_design', 1994, #53 ) ;
#233 = APPROVAL_ROLE ( '' ) ;
#234 = LOCAL_TIME ( 9, 2, 35.00000000000000000, #49 ) ;
#235 = APPROVAL ( #68, 'UNSPECIFIED' ) ;
ENDSEC;
END-ISO-10303-21;
