ISO-10303-21;
HEADER;
FILE_DESCRIPTION (( 'STEP AP203' ),
    '1' );
FILE_NAME ('110-0519E BK7 pl-cx 50.8 F350.STEP',
    '2018-12-21T07:02:48',
    ( '' ),
    ( '' ),
    'SwSTEP 2.0',
    'SolidWorks 2017',
    '' );
FILE_SCHEMA (( 'CONFIG_CONTROL_DESIGN' ));
ENDSEC;

DATA;
#1 = CARTESIAN_POINT ( 'NONE',  ( 25.39999999999999900, 4.884981308350691100E-015, 1.785095167280420300 ) ) ;
#2 = AXIS2_PLACEMENT_3D ( 'NONE', #46, #146, #58 ) ;
#3 = CARTESIAN_POINT ( 'NONE',  ( -8.466492070746049600, -25.70276051260938700, 1.828122048993842800 ) ) ;
#4 = DIRECTION ( 'NONE',  ( 0.0000000000000000000, 0.0000000000000000000, 1.000000000000000000 ) ) ;
#5 =( NAMED_UNIT ( * ) SI_UNIT ( $, .STERADIAN. ) SOLID_ANGLE_UNIT ( ) );
#6 = PERSON_AND_ORGANIZATION ( #94, #39 ) ;
#7 = FACE_OUTER_BOUND ( 'NONE', #203, .T. ) ;
#8 = EDGE_LOOP ( 'NONE', ( #111, #127 ) ) ;
#9 = CC_DESIGN_APPROVAL ( #213, ( #64 ) ) ;
#10 = DIRECTION ( 'NONE',  ( 1.000000000000000000, 0.0000000000000000000, 0.0000000000000000000 ) ) ;
#11 = CC_DESIGN_PERSON_AND_ORGANIZATION_ASSIGNMENT ( #220, #80, ( #177 ) ) ;
#12 = FACE_OUTER_BOUND ( 'NONE', #83, .T. ) ;
#13 = CARTESIAN_POINT ( 'NONE',  ( 9.992007221626412800E-016, 4.884981308350691100E-015, 4.700000000000000200 ) ) ;
#14 = DATE_AND_TIME ( #176, #232 ) ;
#15 = ORIENTED_EDGE ( 'NONE', *, *, #224, .F. ) ;
#16 = DIRECTION ( 'NONE',  ( 1.000000000000000000, 3.200283699100450000E-016, 6.000124531530780400E-016 ) ) ;
#17 = EDGE_CURVE ( 'NONE', #214, #150, #208, .T. ) ;
#18 = CARTESIAN_POINT ( 'NONE',  ( 1.120907602199405000E-013, -8.625473837926072900, -0.6134912589796275300 ) ) ;
#19 = CARTESIAN_POINT ( 'NONE',  ( -8.581481689519579300, -8.625473837926080000, -0.6134912589796370800 ) ) ;
#20 = FACE_OUTER_BOUND ( 'NONE', #195, .T. ) ;
#21 = CARTESIAN_POINT ( 'NONE',  ( -25.39999999999999900, 7.995584178184967200E-015, 4.700000000000000200 ) ) ;
#22 = PERSON_AND_ORGANIZATION_ROLE ( 'classification_officer' ) ;
#23 = APPROVAL_ROLE ( '' ) ;
#24 = PERSON_AND_ORGANIZATION ( #94, #39 ) ;
#25 = AXIS2_PLACEMENT_3D ( 'NONE', #198, #4, #216 ) ;
#26 = CIRCLE ( 'NONE', #140, 25.39999999999999900 ) ;
#27 = DESIGN_CONTEXT ( 'detailed design', #205, 'design' ) ;
#28 = CARTESIAN_POINT ( 'NONE',  ( -8.466492070746063800, 25.70276051260940200, 1.828122048993842600 ) ) ;
#29 = APPLICATION_PROTOCOL_DEFINITION ( 'international standard', 'config_control_design', 1994, #205 ) ;
#30 = ORIENTED_EDGE ( 'NONE', *, *, #112, .T. ) ;
#31 = PRODUCT_DEFINITION ( 'UNKNOWN', '', #158, #27 ) ;
#32 = COORDINATED_UNIVERSAL_TIME_OFFSET ( 2, 0, .AHEAD. ) ;
#33 = CLOSED_SHELL ( 'NONE', ( #107, #37, #229, #159, #123 ) ) ;
#34 = EDGE_CURVE ( 'NONE', #234, #172, #124, .T. ) ;
#35 = PERSON_AND_ORGANIZATION ( #94, #39 ) ;
#36 = ORIENTED_EDGE ( 'NONE', *, *, #86, .F. ) ;
#37 = ADVANCED_FACE ( 'NONE', ( #20 ), #210, .T. ) ;
#38 = AXIS2_PLACEMENT_3D ( 'NONE', #89, #157, #87 ) ;
#39 = ORGANIZATION ( 'UNSPECIFIED', 'UNSPECIFIED', '' ) ;
#40 = DIRECTION ( 'NONE',  ( 1.000000000000000000, 0.0000000000000000000, 0.0000000000000000000 ) ) ;
#41 = CARTESIAN_POINT ( 'NONE',  ( 25.29416982971427100, 25.70276051260940900, 3.616480890344740700 ) ) ;
#42 = CARTESIAN_POINT ( 'NONE',  ( 1.065699675558340900E-013, 8.625473837926088900, -0.6134912589796262000 ) ) ;
#43 = PRODUCT_RELATED_PRODUCT_CATEGORY ( 'detail', '', ( #177 ) ) ;
#44 = CARTESIAN_POINT ( 'NONE',  ( 1.160199027578825000E-013, -25.40000000000004800, 1.785095167280422900 ) ) ;
#45 = CC_DESIGN_PERSON_AND_ORGANIZATION_ASSIGNMENT ( #174, #222, ( #158 ) ) ;
#46 = CARTESIAN_POINT ( 'NONE',  ( 9.992007221626412800E-016, 4.884981308350691100E-015, 4.700000000000000200 ) ) ;
#47 = CALENDAR_DATE ( 2018, 21, 12 ) ;
#48 = CARTESIAN_POINT ( 'NONE',  ( -8.581481689519582900, 8.625473837926087100, -0.6134912589796354100 ) ) ;
#49 = EDGE_CURVE ( 'NONE', #172, #150, #166, .T. ) ;
#50 = VERTEX_POINT ( 'NONE', #230 ) ;
#51 = PERSON_AND_ORGANIZATION ( #94, #39 ) ;
#52 = APPROVAL_PERSON_ORGANIZATION ( #24, #213, #114 ) ;
#53 = CC_DESIGN_PERSON_AND_ORGANIZATION_ASSIGNMENT ( #180, #167, ( #158 ) ) ;
#54 = UNCERTAINTY_MEASURE_WITH_UNIT (LENGTH_MEASURE( 1.000000000000000100E-005 ), #115, 'distance_accuracy_value', 'NONE');
#55 = LOCAL_TIME ( 9, 2, 48.00000000000000000, #78 ) ;
#56 = CARTESIAN_POINT ( 'NONE',  ( 6.245004513516505500E-014, -8.625473837926072900, -0.6134912589796340800 ) ) ;
#57 = CARTESIAN_POINT ( 'NONE',  ( 16.91190186633428300, 25.70276051260940900, 2.425232900168301100 ) ) ;
#58 = DIRECTION ( 'NONE',  ( 1.000000000000000000, 0.0000000000000000000, 0.0000000000000000000 ) ) ;
#59 = PLANE ( 'NONE',  #121 ) ;
#60 = ORIENTED_EDGE ( 'NONE', *, *, #62, .T. ) ;
#61 = DIRECTION ( 'NONE',  ( 1.000000000000000000, 0.0000000000000000000, 0.0000000000000000000 ) ) ;
#62 = EDGE_CURVE ( 'NONE', #172, #218, #163, .T. ) ;
#63 = CARTESIAN_POINT ( 'NONE',  ( 0.0000000000000000000, 0.0000000000000000000, 0.0000000000000000000 ) ) ;
#64 = SECURITY_CLASSIFICATION ( '', '', #134 ) ;
#65 = ORIENTED_EDGE ( 'NONE', *, *, #197, .T. ) ;
#66 = AXIS2_PLACEMENT_3D ( 'NONE', #63, #187, #61 ) ;
#67 = ORIENTED_EDGE ( 'NONE', *, *, #75, .T. ) ;
#68 = DIRECTION ( 'NONE',  ( -0.0000000000000000000, -0.0000000000000000000, -1.000000000000000000 ) ) ;
#69 = ADVANCED_BREP_SHAPE_REPRESENTATION ( '110-0519E BK7 pl-cx 50.8 F350', ( #235, #66 ), #148 ) ;
#70 = DATE_AND_TIME ( #103, #217 ) ;
#71 = LINE ( 'NONE', #181, #200 ) ;
#72 = CARTESIAN_POINT ( 'NONE',  ( 16.91190186633430100, -25.70276051260938000, 2.425232900168300600 ) ) ;
#73 = DIRECTION ( 'NONE',  ( 0.0000000000000000000, 0.0000000000000000000, 1.000000000000000000 ) ) ;
#74 = ORIENTED_EDGE ( 'NONE', *, *, #62, .F. ) ;
#75 = EDGE_CURVE ( 'NONE', #150, #214, #119, .T. ) ;
#76 = CARTESIAN_POINT ( 'NONE',  ( 25.63770844306292700, 8.625473837926097800, 1.199156591287686500 ) ) ;
#77 = DIRECTION ( 'NONE',  ( 1.000000000000000000, 0.0000000000000000000, 0.0000000000000000000 ) ) ;
#78 = COORDINATED_UNIVERSAL_TIME_OFFSET ( 2, 0, .AHEAD. ) ;
#79 = PERSON_AND_ORGANIZATION_ROLE ( 'creator' ) ;
#80 = PERSON_AND_ORGANIZATION_ROLE ( 'design_owner' ) ;
#81 = CC_DESIGN_PERSON_AND_ORGANIZATION_ASSIGNMENT ( #6, #79, ( #31 ) ) ;
#82 = COORDINATED_UNIVERSAL_TIME_OFFSET ( 2, 0, .AHEAD. ) ;
#83 = EDGE_LOOP ( 'NONE', ( #36, #141, #65 ) ) ;
#84 = AXIS2_PLACEMENT_3D ( 'NONE', #194, #212, #40 ) ;
#85 = PRODUCT_DEFINITION_SHAPE ( 'NONE', 'NONE',  #31 ) ;
#86 = EDGE_CURVE ( 'NONE', #218, #234, #206, .T. ) ;
#87 = DIRECTION ( 'NONE',  ( 1.000000000000000000, -8.881784197001252300E-016, 0.0000000000000000000 ) ) ;
#88 = APPROVAL_DATE_TIME ( #126, #209 ) ;
#89 = CARTESIAN_POINT ( 'NONE',  ( 9.992007221626412800E-016, 4.884981308350691100E-015, 1.785095167280420300 ) ) ;
#90 = CC_DESIGN_SECURITY_CLASSIFICATION ( #64, ( #158 ) ) ;
#91 = CARTESIAN_POINT ( 'NONE',  ( 8.581481689519687700, 8.625473837926094200, -0.6134912589796213100 ) ) ;
#92 = DIRECTION ( 'NONE',  ( 1.000000000000000000, 0.0000000000000000000, -0.0000000000000000000 ) ) ;
#93 = CARTESIAN_POINT ( 'NONE',  ( -16.91190186633423000, -25.70276051260939100, 2.425232900168272200 ) ) ;
#94 = PERSON ( 'UNSPECIFIED', 'UNSPECIFIED', 'UNSPECIFIED', ('UNSPECIFIED'), ('UNSPECIFIED'), ('UNSPECIFIED') ) ;
#95 = CARTESIAN_POINT ( 'NONE',  ( 8.466492070746163300, 25.70276051260940500, 1.828122048993857000 ) ) ;
#96 = CARTESIAN_POINT ( 'NONE',  ( -16.91190186633424400, 25.70276051260939800, 2.425232900168272200 ) ) ;
#97 = APPROVAL_ROLE ( '' ) ;
#98 = AXIS2_PLACEMENT_3D ( 'NONE', #227, #125, #10 ) ;
#99 = APPROVAL_DATE_TIME ( #14, #213 ) ;
#100 = ORIENTED_EDGE ( 'NONE', *, *, #17, .T. ) ;
#101 = APPROVAL_STATUS ( 'not_yet_approved' ) ;
#102 = SHAPE_DEFINITION_REPRESENTATION ( #85, #69 ) ;
#103 = CALENDAR_DATE ( 2018, 21, 12 ) ;
#104 = FACE_OUTER_BOUND ( 'NONE', #131, .T. ) ;
#105 = AXIS2_PLACEMENT_3D ( 'NONE', #13, #68, #156 ) ;
#106 = FACE_OUTER_BOUND ( 'NONE', #8, .T. ) ;
#107 = ADVANCED_FACE ( 'NONE', ( #104 ), #120, .T. ) ;
#108 = CARTESIAN_POINT ( 'NONE',  ( 9.976246156645218900E-014, 25.40000000000007000, 1.785095167280422900 ) ) ;
#109 = DIRECTION ( 'NONE',  ( -0.0000000000000000000, -0.0000000000000000000, -1.000000000000000000 ) ) ;
#110 = CARTESIAN_POINT ( 'NONE',  ( 6.938893903907228400E-014, -25.70276051260938000, 1.828122048993845700 ) ) ;
#111 = ORIENTED_EDGE ( 'NONE', *, *, #75, .F. ) ;
#112 = EDGE_CURVE ( 'NONE', #50, #214, #71, .T. ) ;
#113 = CARTESIAN_POINT ( 'NONE',  ( 0.0000000000000000000, 1.421085471520200100E-014, 181.6000000000000200 ) ) ;
#114 = APPROVAL_ROLE ( '' ) ;
#115 =( LENGTH_UNIT ( ) NAMED_UNIT ( * ) SI_UNIT ( .MILLI., .METRE. ) );
#116 = CARTESIAN_POINT ( 'NONE',  ( 5.898059818321145400E-014, 8.625473837926088900, -0.6134912589796324100 ) ) ;
#117 = CALENDAR_DATE ( 2018, 21, 12 ) ;
#118 = CC_DESIGN_DATE_AND_TIME_ASSIGNMENT ( #142, #170, ( #31 ) ) ;
#119 = CIRCLE ( 'NONE', #2, 25.39999999999999900 ) ;
#120 =( BOUNDED_SURFACE ( )  B_SPLINE_SURFACE ( 3, 3, ( 
 ( #184, #162, #72, #143 ),
 ( #18, #160, #201, #231 ),
 ( #42, #91, #164, #76 ),
 ( #183, #95, #57, #41 ) ),
 .UNSPECIFIED., .F., .F., .T. ) 
 B_SPLINE_SURFACE_WITH_KNOTS ( ( 4, 4 ),
 ( 4, 4 ),
 ( 0.0000000000000000000, 1.000000000000000000 ),
 ( 0.0000000000000000000, 1.000000000000000000 ),
 .UNSPECIFIED. ) 
 GEOMETRIC_REPRESENTATION_ITEM ( )  RATIONAL_B_SPLINE_SURFACE ( (
 ( 1.000000000000000000, 0.9983399441010686300, 0.9983399441010686300, 1.000000000000000000),
 ( 0.9932888324192588000, 0.9916399174336585400, 0.9916399174336585400, 0.9932888324192588000),
 ( 0.9932888324192588000, 0.9916399174336585400, 0.9916399174336585400, 0.9932888324192588000),
 ( 1.000000000000000000, 0.9983399441010686300, 0.9983399441010686300, 1.000000000000000000) ) ) 
 REPRESENTATION_ITEM ( '' )  SURFACE ( )  );
#121 = AXIS2_PLACEMENT_3D ( 'NONE', #196, #199, #92 ) ;
#122 = DATE_AND_TIME ( #47, #211 ) ;
#123 = ADVANCED_FACE ( 'NONE', ( #106 ), #59, .T. ) ;
#124 = CIRCLE ( 'NONE', #38, 25.39999999999999900 ) ;
#125 = DIRECTION ( 'NONE',  ( -0.0000000000000000000, -0.0000000000000000000, -1.000000000000000000 ) ) ;
#126 = DATE_AND_TIME ( #117, #55 ) ;
#127 = ORIENTED_EDGE ( 'NONE', *, *, #17, .F. ) ;
#128 = DIRECTION ( 'NONE',  ( 0.0000000000000000000, 0.0000000000000000000, 1.000000000000000000 ) ) ;
#129 = APPROVAL_DATE_TIME ( #70, #130 ) ;
#130 = APPROVAL ( #101, 'UNSPECIFIED' ) ;
#131 = EDGE_LOOP ( 'NONE', ( #60, #223, #155 ) ) ;
#132 = CARTESIAN_POINT ( 'NONE',  ( -17.14159477008883300, -8.625473837926081800, -0.008270608780021945100 ) ) ;
#133 = CARTESIAN_POINT ( 'NONE',  ( 25.39999999999999900, 4.884981308350691100E-015, 4.700000000000000200 ) ) ;
#134 = SECURITY_CLASSIFICATION_LEVEL ( 'unclassified' ) ;
#135 = PERSON_AND_ORGANIZATION ( #94, #39 ) ;
#136 = CARTESIAN_POINT ( 'NONE',  ( 5.551115123125782700E-014, 25.70276051260940200, 1.828122048993845700 ) ) ;
#137 = DATE_TIME_ROLE ( 'classification_date' ) ;
#138 =( NAMED_UNIT ( * ) PLANE_ANGLE_UNIT ( ) SI_UNIT ( $, .RADIAN. ) );
#139 = ORIENTED_EDGE ( 'NONE', *, *, #197, .F. ) ;
#140 = AXIS2_PLACEMENT_3D ( 'NONE', #147, #109, #165 ) ;
#141 = ORIENTED_EDGE ( 'NONE', *, *, #224, .T. ) ;
#142 = DATE_AND_TIME ( #207, #191 ) ;
#143 = CARTESIAN_POINT ( 'NONE',  ( 25.29416982971429200, -25.70276051260937300, 3.616480890344740700 ) ) ;
#144 = COORDINATED_UNIVERSAL_TIME_OFFSET ( 2, 0, .AHEAD. ) ;
#145 = DIRECTION ( 'NONE',  ( -0.0000000000000000000, -0.0000000000000000000, -1.000000000000000000 ) ) ;
#146 = DIRECTION ( 'NONE',  ( -0.0000000000000000000, -0.0000000000000000000, -1.000000000000000000 ) ) ;
#147 = CARTESIAN_POINT ( 'NONE',  ( 9.992007221626412800E-016, 4.884981308350691100E-015, 1.785095167280420300 ) ) ;
#148 =( GEOMETRIC_REPRESENTATION_CONTEXT ( 3 ) GLOBAL_UNCERTAINTY_ASSIGNED_CONTEXT ( ( #54 ) ) GLOBAL_UNIT_ASSIGNED_CONTEXT ( ( #115, #138, #5 ) ) REPRESENTATION_CONTEXT ( 'NONE', 'WORKASPACE' ) );
#149 = ORIENTED_EDGE ( 'NONE', *, *, #49, .F. ) ;
#150 = VERTEX_POINT ( 'NONE', #133 ) ;
#151 = CARTESIAN_POINT ( 'NONE',  ( -17.14159477008884000, 8.625473837926085400, -0.008270608780020430700 ) ) ;
#152 = CARTESIAN_POINT ( 'NONE',  ( -25.29416982971429200, 25.70276051260939100, 3.616480890344719900 ) ) ;
#153 =( BOUNDED_SURFACE ( )  B_SPLINE_SURFACE ( 3, 3, ( 
 ( #215, #93, #3, #110 ),
 ( #186, #132, #19, #56 ),
 ( #204, #151, #48, #116 ),
 ( #152, #96, #28, #136 ) ),
 .UNSPECIFIED., .F., .F., .F. ) 
 B_SPLINE_SURFACE_WITH_KNOTS ( ( 4, 4 ),
 ( 4, 4 ),
 ( 0.0000000000000000000, 1.000000000000000000 ),
 ( 0.0000000000000000000, 1.000000000000000000 ),
 .UNSPECIFIED. ) 
 GEOMETRIC_REPRESENTATION_ITEM ( )  RATIONAL_B_SPLINE_SURFACE ( (
 ( 1.000000000000000000, 0.9983399441010686300, 0.9983399441010686300, 1.000000000000000000),
 ( 0.9932888324192588000, 0.9916399174336585400, 0.9916399174336585400, 0.9932888324192588000),
 ( 0.9932888324192588000, 0.9916399174336585400, 0.9916399174336585400, 0.9932888324192588000),
 ( 1.000000000000000000, 0.9983399441010686300, 0.9983399441010686300, 1.000000000000000000) ) ) 
 REPRESENTATION_ITEM ( '' )  SURFACE ( )  );
#154 = CIRCLE ( 'NONE', #168, 25.39999999999999900 ) ;
#155 = ORIENTED_EDGE ( 'NONE', *, *, #34, .T. ) ;
#156 = DIRECTION ( 'NONE',  ( 1.000000000000000000, 0.0000000000000000000, 0.0000000000000000000 ) ) ;
#157 = DIRECTION ( 'NONE',  ( -0.0000000000000000000, -0.0000000000000000000, -1.000000000000000000 ) ) ;
#158 = PRODUCT_DEFINITION_FORMATION_WITH_SPECIFIED_SOURCE ( 'ANY', '', #177, .NOT_KNOWN. ) ;
#159 = ADVANCED_FACE ( 'NONE', ( #7 ), #188, .T. ) ;
#160 = CARTESIAN_POINT ( 'NONE',  ( 8.581481689519694800, -8.625473837926072900, -0.6134912589796226400 ) ) ;
#161 = CC_DESIGN_APPROVAL ( #130, ( #158 ) ) ;
#162 = CARTESIAN_POINT ( 'NONE',  ( 8.466492070746181000, -25.70276051260938400, 1.828122048993857000 ) ) ;
#163 = CIRCLE ( 'NONE', #98, 25.39999999999999900 ) ;
#164 = CARTESIAN_POINT ( 'NONE',  ( 17.14159477008888600, 8.625473837926096000, -0.008270608779991589200 ) ) ;
#165 = DIRECTION ( 'NONE',  ( 1.000000000000000000, 0.0000000000000000000, 0.0000000000000000000 ) ) ;
#166 = LINE ( 'NONE', #228, #226 ) ;
#167 = PERSON_AND_ORGANIZATION_ROLE ( 'design_supplier' ) ;
#168 = AXIS2_PLACEMENT_3D ( 'NONE', #233, #145, #77 ) ;
#169 = MECHANICAL_CONTEXT ( 'NONE', #219, 'mechanical' ) ;
#170 = DATE_TIME_ROLE ( 'creation_date' ) ;
#171 = APPROVAL_PERSON_ORGANIZATION ( #35, #209, #23 ) ;
#172 = VERTEX_POINT ( 'NONE', #1 ) ;
#173 = CC_DESIGN_PERSON_AND_ORGANIZATION_ASSIGNMENT ( #135, #22, ( #64 ) ) ;
#174 = PERSON_AND_ORGANIZATION ( #94, #39 ) ;
#175 = ORIENTED_EDGE ( 'NONE', *, *, #112, .F. ) ;
#176 = CALENDAR_DATE ( 2018, 21, 12 ) ;
#177 = PRODUCT ( '110-0519E BK7 pl-cx 50.8 F350', '110-0519E BK7 pl-cx 50.8 F350', '', ( #169 ) ) ;
#178 = AXIS2_PLACEMENT_3D ( 'NONE', #113, #16, #179 ) ;
#179 = DIRECTION ( 'NONE',  ( 3.200283699100447500E-016, -1.000000000000000000, 3.056781455465739200E-016 ) ) ;
#180 = PERSON_AND_ORGANIZATION ( #94, #39 ) ;
#181 = CARTESIAN_POINT ( 'NONE',  ( -25.39999999999999900, 7.995584178184967200E-015, 1.785095167280420300 ) ) ;
#182 = ORIENTED_EDGE ( 'NONE', *, *, #49, .T. ) ;
#183 = CARTESIAN_POINT ( 'NONE',  ( 9.963975294828030300E-014, 25.70276051260939800, 1.828122048993852100 ) ) ;
#184 = CARTESIAN_POINT ( 'NONE',  ( 1.160909780463575800E-013, -25.70276051260938400, 1.828122048993852100 ) ) ;
#185 = CC_DESIGN_APPROVAL ( #209, ( #31 ) ) ;
#186 = CARTESIAN_POINT ( 'NONE',  ( -25.63770844306293400, -8.625473837926081800, 1.199156591287664500 ) ) ;
#187 = DIRECTION ( 'NONE',  ( 0.0000000000000000000, 0.0000000000000000000, 1.000000000000000000 ) ) ;
#188 = CYLINDRICAL_SURFACE ( 'NONE', #25, 25.39999999999999900 ) ;
#189 = APPROVAL_STATUS ( 'not_yet_approved' ) ;
#190 = COORDINATED_UNIVERSAL_TIME_OFFSET ( 2, 0, .AHEAD. ) ;
#191 = LOCAL_TIME ( 9, 2, 48.00000000000000000, #190 ) ;
#192 = ORIENTED_EDGE ( 'NONE', *, *, #34, .F. ) ;
#193 = CC_DESIGN_DATE_AND_TIME_ASSIGNMENT ( #122, #137, ( #64 ) ) ;
#194 = CARTESIAN_POINT ( 'NONE',  ( 9.992007221626412800E-016, 4.884981308350691100E-015, 1.785095167280420300 ) ) ;
#195 = EDGE_LOOP ( 'NONE', ( #139, #30, #100, #149, #192 ) ) ;
#196 = CARTESIAN_POINT ( 'NONE',  ( 0.0000000000000000000, 52.02000000000000300, 4.700000000000000200 ) ) ;
#197 = EDGE_CURVE ( 'NONE', #50, #234, #26, .T. ) ;
#198 = CARTESIAN_POINT ( 'NONE',  ( 9.992007221626412800E-016, 4.884981308350691100E-015, 1.785095167280420300 ) ) ;
#199 = DIRECTION ( 'NONE',  ( 0.0000000000000000000, 0.0000000000000000000, 1.000000000000000000 ) ) ;
#200 = VECTOR ( 'NONE', #73, 1000.000000000000000 ) ;
#201 = CARTESIAN_POINT ( 'NONE',  ( 17.14159477008889400, -8.625473837926071100, -0.008270608779992888500 ) ) ;
#202 = APPROVAL_STATUS ( 'not_yet_approved' ) ;
#203 = EDGE_LOOP ( 'NONE', ( #175, #15, #74, #182, #67 ) ) ;
#204 = CARTESIAN_POINT ( 'NONE',  ( -25.63770844306293700, 8.625473837926081800, 1.199156591287665800 ) ) ;
#205 = APPLICATION_CONTEXT ( 'configuration controlled 3d designs of mechanical parts and assemblies' ) ;
#206 = CIRCLE ( 'NONE', #178, 181.6000000000000200 ) ;
#207 = CALENDAR_DATE ( 2018, 21, 12 ) ;
#208 = CIRCLE ( 'NONE', #105, 25.39999999999999900 ) ;
#209 = APPROVAL ( #202, 'UNSPECIFIED' ) ;
#210 = CYLINDRICAL_SURFACE ( 'NONE', #84, 25.39999999999999900 ) ;
#211 = LOCAL_TIME ( 9, 2, 48.00000000000000000, #32 ) ;
#212 = DIRECTION ( 'NONE',  ( 0.0000000000000000000, 0.0000000000000000000, 1.000000000000000000 ) ) ;
#213 = APPROVAL ( #189, 'UNSPECIFIED' ) ;
#214 = VERTEX_POINT ( 'NONE', #21 ) ;
#215 = CARTESIAN_POINT ( 'NONE',  ( -25.29416982971427800, -25.70276051260939100, 3.616480890344719900 ) ) ;
#216 = DIRECTION ( 'NONE',  ( 1.000000000000000000, 0.0000000000000000000, 0.0000000000000000000 ) ) ;
#217 = LOCAL_TIME ( 9, 2, 48.00000000000000000, #82 ) ;
#218 = VERTEX_POINT ( 'NONE', #44 ) ;
#219 = APPLICATION_CONTEXT ( 'configuration controlled 3d designs of mechanical parts and assemblies' ) ;
#220 = PERSON_AND_ORGANIZATION ( #94, #39 ) ;
#221 = APPLICATION_PROTOCOL_DEFINITION ( 'international standard', 'config_control_design', 1994, #219 ) ;
#222 = PERSON_AND_ORGANIZATION_ROLE ( 'creator' ) ;
#223 = ORIENTED_EDGE ( 'NONE', *, *, #86, .T. ) ;
#224 = EDGE_CURVE ( 'NONE', #218, #50, #154, .T. ) ;
#225 = APPROVAL_PERSON_ORGANIZATION ( #51, #130, #97 ) ;
#226 = VECTOR ( 'NONE', #128, 1000.000000000000000 ) ;
#227 = CARTESIAN_POINT ( 'NONE',  ( 9.992007221626412800E-016, 4.884981308350691100E-015, 1.785095167280420300 ) ) ;
#228 = CARTESIAN_POINT ( 'NONE',  ( 25.39999999999999900, 4.884981308350691100E-015, 1.785095167280420300 ) ) ;
#229 = ADVANCED_FACE ( 'NONE', ( #12 ), #153, .T. ) ;
#230 = CARTESIAN_POINT ( 'NONE',  ( -25.39999999999999900, 7.995584178184967200E-015, 1.785095167280420300 ) ) ;
#231 = CARTESIAN_POINT ( 'NONE',  ( 25.63770844306293400, -8.625473837926065800, 1.199156591287685100 ) ) ;
#232 = LOCAL_TIME ( 9, 2, 48.00000000000000000, #144 ) ;
#233 = CARTESIAN_POINT ( 'NONE',  ( 9.992007221626412800E-016, 4.884981308350691100E-015, 1.785095167280420300 ) ) ;
#234 = VERTEX_POINT ( 'NONE', #108 ) ;
#235 = MANIFOLD_SOLID_BREP ( 'Imported1', #33 ) ;
ENDSEC;
END-ISO-10303-21;
