ISO-10303-21;
HEADER;
FILE_DESCRIPTION (( 'STEP AP203' ),
    '1' );
FILE_NAME ('110-0515E BK7 pl-cx 50.8 F300.STEP',
    '2018-12-21T07:03:12',
    ( '' ),
    ( '' ),
    'SwSTEP 2.0',
    'SolidWorks 2017',
    '' );
FILE_SCHEMA (( 'CONFIG_CONTROL_DESIGN' ));
ENDSEC;

DATA;
#1 = DIRECTION ( 'NONE',  ( 1.000000000000000000, 0.0000000000000000000, 0.0000000000000000000 ) ) ;
#2 = APPROVAL_PERSON_ORGANIZATION ( #176, #190, #66 ) ;
#3 = AXIS2_PLACEMENT_3D ( 'NONE', #101, #200, #39 ) ;
#4 =( NAMED_UNIT ( * ) PLANE_ANGLE_UNIT ( ) SI_UNIT ( $, .RADIAN. ) );
#5 = CARTESIAN_POINT ( 'NONE',  ( 9.992007221626412800E-016, 4.884981308350691100E-015, 2.087134089679630200 ) ) ;
#6 = CARTESIAN_POINT ( 'NONE',  ( -8.447809566791482500, -25.70201399492503600, 2.137410172365886500 ) ) ;
#7 = ORIENTED_EDGE ( 'NONE', *, *, #99, .F. ) ;
#8 = CARTESIAN_POINT ( 'NONE',  ( -17.18085243408538100, -8.646520348559315400, -0.01012877294035395600 ) ) ;
#9 = AXIS2_PLACEMENT_3D ( 'NONE', #87, #221, #180 ) ;
#10 = APPLICATION_PROTOCOL_DEFINITION ( 'international standard', 'config_control_design', 1994, #194 ) ;
#11 = COORDINATED_UNIVERSAL_TIME_OFFSET ( 2, 0, .AHEAD. ) ;
#12 = CIRCLE ( 'NONE', #125, 25.39999999999999900 ) ;
#13 = APPROVAL ( #30, 'UNSPECIFIED' ) ;
#14 = VERTEX_POINT ( 'NONE', #224 ) ;
#15 = CALENDAR_DATE ( 2018, 21, 12 ) ;
#16 = ORIENTED_EDGE ( 'NONE', *, *, #172, .T. ) ;
#17 = AXIS2_PLACEMENT_3D ( 'NONE', #134, #188, #187 ) ;
#18 = ORIENTED_EDGE ( 'NONE', *, *, #77, .F. ) ;
#19 = DIRECTION ( 'NONE',  ( 1.000000000000000000, 0.0000000000000000000, 0.0000000000000000000 ) ) ;
#20 = CARTESIAN_POINT ( 'NONE',  ( 17.18085243408531300, 8.646520348559350900, -0.01012877294039558900 ) ) ;
#21 = LOCAL_TIME ( 9, 3, 12.00000000000000000, #11 ) ;
#22 = VECTOR ( 'NONE', #94, 1000.000000000000000 ) ;
#23 =( BOUNDED_SURFACE ( )  B_SPLINE_SURFACE ( 3, 3, ( 
 ( #115, #228, #6, #41 ),
 ( #229, #8, #138, #147 ),
 ( #111, #209, #79, #164 ),
 ( #59, #183, #133, #151 ) ),
 .UNSPECIFIED., .F., .F., .F. ) 
 B_SPLINE_SURFACE_WITH_KNOTS ( ( 4, 4 ),
 ( 4, 4 ),
 ( 0.0000000000000000000, 1.000000000000000000 ),
 ( 0.0000000000000000000, 1.000000000000000000 ),
 .UNSPECIFIED. ) 
 GEOMETRIC_REPRESENTATION_ITEM ( )  RATIONAL_B_SPLINE_SURFACE ( (
 ( 1.000000000000000000, 0.9977337252829633400, 0.9977337252829633400, 1.000000000000000000),
 ( 0.9908422871792379500, 0.9885967663552328600, 0.9885967663552328600, 0.9908422871792379500),
 ( 0.9908422871792379500, 0.9885967663552328600, 0.9885967663552328600, 0.9908422871792379500),
 ( 1.000000000000000000, 0.9977337252829633400, 0.9977337252829633400, 1.000000000000000000) ) ) 
 REPRESENTATION_ITEM ( '' )  SURFACE ( )  );
#24 = CARTESIAN_POINT ( 'NONE',  ( 4.263256414560599900E-014, 4.263256414560599900E-014, 155.5999999999999900 ) ) ;
#25 = ORIENTED_EDGE ( 'NONE', *, *, #99, .T. ) ;
#26 = CC_DESIGN_APPROVAL ( #13, ( #217 ) ) ;
#27 = DIRECTION ( 'NONE',  ( 1.000000000000000000, 0.0000000000000000000, 0.0000000000000000000 ) ) ;
#28 = PERSON_AND_ORGANIZATION_ROLE ( 'design_supplier' ) ;
#29 = PERSON_AND_ORGANIZATION_ROLE ( 'creator' ) ;
#30 = APPROVAL_STATUS ( 'not_yet_approved' ) ;
#31 = LINE ( 'NONE', #52, #122 ) ;
#32 = DATE_AND_TIME ( #15, #173 ) ;
#33 = PERSON_AND_ORGANIZATION ( #105, #49 ) ;
#34 = ORIENTED_EDGE ( 'NONE', *, *, #150, .F. ) ;
#35 = DIRECTION ( 'NONE',  ( -0.0000000000000000000, -0.0000000000000000000, -1.000000000000000000 ) ) ;
#36 = DIRECTION ( 'NONE',  ( 0.0000000000000000000, 0.0000000000000000000, 1.000000000000000000 ) ) ;
#37 = CARTESIAN_POINT ( 'NONE',  ( 16.86690154772956200, -25.70201399492503200, 2.833381934204479300 ) ) ;
#38 = CARTESIAN_POINT ( 'NONE',  ( 4.263256414560599900E-014, 25.70201399492507500, 2.137410172365850100 ) ) ;
#39 = DIRECTION ( 'NONE',  ( 1.000000000000000000, 0.0000000000000000000, -0.0000000000000000000 ) ) ;
#40 = PRODUCT ( '110-0515E BK7 pl-cx 50.8 F300', '110-0515E BK7 pl-cx 50.8 F300', '', ( #116 ) ) ;
#41 = CARTESIAN_POINT ( 'NONE',  ( 6.938893903907228400E-015, -25.70201399492503600, 2.137410172365884300 ) ) ;
#42 = APPROVAL_DATE_TIME ( #47, #145 ) ;
#43 = DIRECTION ( 'NONE',  ( -0.0000000000000000000, -0.0000000000000000000, -1.000000000000000000 ) ) ;
#44 = CARTESIAN_POINT ( 'NONE',  ( 4.263256414560599900E-014, -25.39999999999999900, 2.087134089679650600 ) ) ;
#45 = PERSON_AND_ORGANIZATION ( #105, #49 ) ;
#46 = PERSON_AND_ORGANIZATION_ROLE ( 'creator' ) ;
#47 = DATE_AND_TIME ( #162, #58 ) ;
#48 = ORIENTED_EDGE ( 'NONE', *, *, #172, .F. ) ;
#49 = ORGANIZATION ( 'UNSPECIFIED', 'UNSPECIFIED', '' ) ;
#50 = CC_DESIGN_PERSON_AND_ORGANIZATION_ASSIGNMENT ( #84, #216, ( #160 ) ) ;
#51 = CARTESIAN_POINT ( 'NONE',  ( 25.66909511597194500, -8.646520348559317200, 1.402903729216309800 ) ) ;
#52 = CARTESIAN_POINT ( 'NONE',  ( 25.39999999999999900, 4.884981308350691100E-015, 2.087134089679630200 ) ) ;
#53 = ORIENTED_EDGE ( 'NONE', *, *, #69, .T. ) ;
#54 =( BOUNDED_SURFACE ( )  B_SPLINE_SURFACE ( 3, 3, ( 
 ( #144, #204, #37, #159 ),
 ( #55, #104, #128, #51 ),
 ( #89, #75, #20, #179 ),
 ( #38, #205, #161, #182 ) ),
 .UNSPECIFIED., .F., .F., .T. ) 
 B_SPLINE_SURFACE_WITH_KNOTS ( ( 4, 4 ),
 ( 4, 4 ),
 ( 0.0000000000000000000, 1.000000000000000000 ),
 ( 0.0000000000000000000, 1.000000000000000000 ),
 .UNSPECIFIED. ) 
 GEOMETRIC_REPRESENTATION_ITEM ( )  RATIONAL_B_SPLINE_SURFACE ( (
 ( 1.000000000000000000, 0.9977337252829635600, 0.9977337252829635600, 1.000000000000000000),
 ( 0.9908422871792379500, 0.9885967663552330800, 0.9885967663552330800, 0.9908422871792379500),
 ( 0.9908422871792379500, 0.9885967663552330800, 0.9885967663552330800, 0.9908422871792379500),
 ( 1.000000000000000000, 0.9977337252829635600, 0.9977337252829635600, 1.000000000000000000) ) ) 
 REPRESENTATION_ITEM ( '' )  SURFACE ( )  );
#55 = CARTESIAN_POINT ( 'NONE',  ( 4.263256414560600500E-014, -8.646520348559317200, -0.7190549562469303900 ) ) ;
#56 = DIRECTION ( 'NONE',  ( 1.000000000000000000, 0.0000000000000000000, 0.0000000000000000000 ) ) ;
#57 = DIRECTION ( 'NONE',  ( 0.0000000000000000000, 0.0000000000000000000, 1.000000000000000000 ) ) ;
#58 = LOCAL_TIME ( 9, 3, 12.00000000000000000, #82 ) ;
#59 = CARTESIAN_POINT ( 'NONE',  ( -25.20003601692403100, 25.70201399492507500, 4.220593668258803900 ) ) ;
#60 = ORIENTED_EDGE ( 'NONE', *, *, #69, .F. ) ;
#61 = DIRECTION ( 'NONE',  ( 1.000000000000000000, 0.0000000000000000000, 0.0000000000000000000 ) ) ;
#62 = DIRECTION ( 'NONE',  ( 0.0000000000000000000, -1.000000000000000000, -3.567554706379037700E-016 ) ) ;
#63 = ORIENTED_EDGE ( 'NONE', *, *, #158, .F. ) ;
#64 = APPROVAL_ROLE ( '' ) ;
#65 = ORIENTED_EDGE ( 'NONE', *, *, #117, .T. ) ;
#66 = APPROVAL_ROLE ( '' ) ;
#67 = ORIENTED_EDGE ( 'NONE', *, *, #117, .F. ) ;
#68 = CC_DESIGN_APPROVAL ( #190, ( #160 ) ) ;
#69 = EDGE_CURVE ( 'NONE', #174, #120, #12, .T. ) ;
#70 = DATE_AND_TIME ( #142, #21 ) ;
#71 = CIRCLE ( 'NONE', #130, 25.39999999999999900 ) ;
#72 = CC_DESIGN_DATE_AND_TIME_ASSIGNMENT ( #226, #81, ( #160 ) ) ;
#73 = CIRCLE ( 'NONE', #112, 25.39999999999999900 ) ;
#74 = CARTESIAN_POINT ( 'NONE',  ( 9.992007221626412800E-016, 4.884981308350691100E-015, 5.000000000000000000 ) ) ;
#75 = CARTESIAN_POINT ( 'NONE',  ( 8.605052276352182600, 8.646520348559350900, -0.7190549562469528100 ) ) ;
#76 = ADVANCED_FACE ( 'NONE', ( #124 ), #146, .T. ) ;
#77 = EDGE_CURVE ( 'NONE', #80, #174, #31, .T. ) ;
#78 = COORDINATED_UNIVERSAL_TIME_OFFSET ( 2, 0, .AHEAD. ) ;
#79 = CARTESIAN_POINT ( 'NONE',  ( -8.605052276352202200, 8.646520348559352700, -0.7190549562469453800 ) ) ;
#80 = VERTEX_POINT ( 'NONE', #127 ) ;
#81 = DATE_TIME_ROLE ( 'classification_date' ) ;
#82 = COORDINATED_UNIVERSAL_TIME_OFFSET ( 2, 0, .AHEAD. ) ;
#83 = ORIENTED_EDGE ( 'NONE', *, *, #158, .T. ) ;
#84 = PERSON_AND_ORGANIZATION ( #105, #49 ) ;
#85 = APPROVAL_PERSON_ORGANIZATION ( #45, #13, #64 ) ;
#86 = CIRCLE ( 'NONE', #175, 25.39999999999999900 ) ;
#87 = CARTESIAN_POINT ( 'NONE',  ( 9.992007221626412800E-016, 4.884981308350691100E-015, 2.087134089679630200 ) ) ;
#88 = CARTESIAN_POINT ( 'NONE',  ( 9.992007221626412800E-016, 4.884981308350691100E-015, 2.087134089679630200 ) ) ;
#89 = CARTESIAN_POINT ( 'NONE',  ( 4.263256414560600500E-014, 8.646520348559352700, -0.7190549562469529300 ) ) ;
#90 = ADVANCED_FACE ( 'NONE', ( #199 ), #102, .T. ) ;
#91 = DIRECTION ( 'NONE',  ( 1.000000000000000000, 0.0000000000000000000, 0.0000000000000000000 ) ) ;
#92 = CALENDAR_DATE ( 2018, 21, 12 ) ;
#93 = CARTESIAN_POINT ( 'NONE',  ( -25.39999999999999900, 7.995584178184967200E-015, 2.087134089679630200 ) ) ;
#94 = DIRECTION ( 'NONE',  ( 0.0000000000000000000, 0.0000000000000000000, 1.000000000000000000 ) ) ;
#95 = CC_DESIGN_PERSON_AND_ORGANIZATION_ASSIGNMENT ( #177, #192, ( #40 ) ) ;
#96 = CARTESIAN_POINT ( 'NONE',  ( -25.39999999999999900, 7.995584178184967200E-015, 5.000000000000000000 ) ) ;
#97 = APPROVAL_STATUS ( 'not_yet_approved' ) ;
#98 = APPLICATION_PROTOCOL_DEFINITION ( 'international standard', 'config_control_design', 1994, #208 ) ;
#99 = EDGE_CURVE ( 'NONE', #80, #126, #73, .T. ) ;
#100 = FACE_OUTER_BOUND ( 'NONE', #185, .T. ) ;
#101 = CARTESIAN_POINT ( 'NONE',  ( 0.0000000000000000000, 52.02000000000000300, 5.000000000000000000 ) ) ;
#102 = CYLINDRICAL_SURFACE ( 'NONE', #219, 25.39999999999999900 ) ;
#103 = CC_DESIGN_DATE_AND_TIME_ASSIGNMENT ( #70, #140, ( #217 ) ) ;
#104 = CARTESIAN_POINT ( 'NONE',  ( 8.605052276352182600, -8.646520348559318900, -0.7190549562469303900 ) ) ;
#105 = PERSON ( 'UNSPECIFIED', 'UNSPECIFIED', 'UNSPECIFIED', ('UNSPECIFIED'), ('UNSPECIFIED'), ('UNSPECIFIED') ) ;
#106 = ORIENTED_EDGE ( 'NONE', *, *, #109, .F. ) ;
#107 = PRODUCT_DEFINITION_SHAPE ( 'NONE', 'NONE',  #217 ) ;
#108 =( LENGTH_UNIT ( ) NAMED_UNIT ( * ) SI_UNIT ( .MILLI., .METRE. ) );
#109 = EDGE_CURVE ( 'NONE', #178, #14, #170, .T. ) ;
#110 = ADVANCED_FACE ( 'NONE', ( #100 ), #54, .T. ) ;
#111 = CARTESIAN_POINT ( 'NONE',  ( -25.66909511597207700, 8.646520348559352700, 1.402903729216328400 ) ) ;
#112 = AXIS2_PLACEMENT_3D ( 'NONE', #88, #35, #1 ) ;
#113 = DIRECTION ( 'NONE',  ( 1.000000000000000000, 8.881784197001252300E-016, 0.0000000000000000000 ) ) ;
#114 = DIRECTION ( 'NONE',  ( 0.0000000000000000000, 0.0000000000000000000, 1.000000000000000000 ) ) ;
#115 = CARTESIAN_POINT ( 'NONE',  ( -25.20003601692402400, -25.70201399492503600, 4.220593668258832300 ) ) ;
#116 = MECHANICAL_CONTEXT ( 'NONE', #208, 'mechanical' ) ;
#117 = EDGE_CURVE ( 'NONE', #178, #120, #235, .T. ) ;
#118 = DIRECTION ( 'NONE',  ( 1.000000000000000000, 0.0000000000000000000, 0.0000000000000000000 ) ) ;
#119 = COORDINATED_UNIVERSAL_TIME_OFFSET ( 2, 0, .AHEAD. ) ;
#120 = VERTEX_POINT ( 'NONE', #96 ) ;
#121 = ADVANCED_FACE ( 'NONE', ( #207 ), #23, .T. ) ;
#122 = VECTOR ( 'NONE', #57, 1000.000000000000000 ) ;
#123 = AXIS2_PLACEMENT_3D ( 'NONE', #5, #114, #27 ) ;
#124 = FACE_OUTER_BOUND ( 'NONE', #202, .T. ) ;
#125 = AXIS2_PLACEMENT_3D ( 'NONE', #74, #203, #56 ) ;
#126 = VERTEX_POINT ( 'NONE', #44 ) ;
#127 = CARTESIAN_POINT ( 'NONE',  ( 25.39999999999999900, 4.884981308350691100E-015, 2.087134089679630200 ) ) ;
#128 = CARTESIAN_POINT ( 'NONE',  ( 17.18085243408531000, -8.646520348559318900, -0.01012877294037325300 ) ) ;
#129 = SHAPE_DEFINITION_REPRESENTATION ( #107, #213 ) ;
#130 = AXIS2_PLACEMENT_3D ( 'NONE', #165, #43, #113 ) ;
#131 =( NAMED_UNIT ( * ) SI_UNIT ( $, .STERADIAN. ) SOLID_ANGLE_UNIT ( ) );
#132 = DATE_AND_TIME ( #92, #206 ) ;
#133 = CARTESIAN_POINT ( 'NONE',  ( -8.447809566791486100, 25.70201399492507500, 2.137410172365857600 ) ) ;
#134 = CARTESIAN_POINT ( 'NONE',  ( 9.992007221626412800E-016, 4.884981308350691100E-015, 2.087134089679630200 ) ) ;
#135 = PRODUCT_RELATED_PRODUCT_CATEGORY ( 'detail', '', ( #40 ) ) ;
#136 = DIRECTION ( 'NONE',  ( -0.0000000000000000000, -0.0000000000000000000, -1.000000000000000000 ) ) ;
#137 = PRODUCT_DEFINITION_FORMATION_WITH_SPECIFIED_SOURCE ( 'ANY', '', #40, .NOT_KNOWN. ) ;
#138 = CARTESIAN_POINT ( 'NONE',  ( -8.605052276352202200, -8.646520348559313600, -0.7190549562469218400 ) ) ;
#139 = MANIFOLD_SOLID_BREP ( 'Imported1', #157 ) ;
#140 = DATE_TIME_ROLE ( 'creation_date' ) ;
#141 = EDGE_LOOP ( 'NONE', ( #67, #63, #7, #227, #53 ) ) ;
#142 = CALENDAR_DATE ( 2018, 21, 12 ) ;
#143 = CARTESIAN_POINT ( 'NONE',  ( 9.992007221626412800E-016, 4.884981308350691100E-015, 2.087134089679630200 ) ) ;
#144 = CARTESIAN_POINT ( 'NONE',  ( 4.263256414560599900E-014, -25.70201399492503600, 2.137410172365878000 ) ) ;
#145 = APPROVAL ( #97, 'UNSPECIFIED' ) ;
#146 = PLANE ( 'NONE',  #3 ) ;
#147 = CARTESIAN_POINT ( 'NONE',  ( 0.0000000000000000000, -8.646520348559315400, -0.7190549562469242800 ) ) ;
#148 = CIRCLE ( 'NONE', #186, 155.5999999999999900 ) ;
#149 = CARTESIAN_POINT ( 'NONE',  ( -25.39999999999999900, 7.995584178184967200E-015, 2.087134089679630200 ) ) ;
#150 = EDGE_CURVE ( 'NONE', #120, #174, #86, .T. ) ;
#151 = CARTESIAN_POINT ( 'NONE',  ( 3.469446951953614200E-015, 25.70201399492507500, 2.137410172365855800 ) ) ;
#152 = CARTESIAN_POINT ( 'NONE',  ( 0.0000000000000000000, 0.0000000000000000000, 0.0000000000000000000 ) ) ;
#153 = ORIENTED_EDGE ( 'NONE', *, *, #109, .T. ) ;
#154 = ORIENTED_EDGE ( 'NONE', *, *, #181, .F. ) ;
#155 = CC_DESIGN_PERSON_AND_ORGANIZATION_ASSIGNMENT ( #233, #46, ( #217 ) ) ;
#156 = CALENDAR_DATE ( 2018, 21, 12 ) ;
#157 = CLOSED_SHELL ( 'NONE', ( #110, #196, #121, #90, #76 ) ) ;
#158 = EDGE_CURVE ( 'NONE', #126, #178, #214, .T. ) ;
#159 = CARTESIAN_POINT ( 'NONE',  ( 25.20003601692389900, -25.70201399492503600, 4.220593668258791500 ) ) ;
#160 = SECURITY_CLASSIFICATION ( '', '', #193 ) ;
#161 = CARTESIAN_POINT ( 'NONE',  ( 16.86690154772956900, 25.70201399492507100, 2.833381934204451300 ) ) ;
#162 = CALENDAR_DATE ( 2018, 21, 12 ) ;
#163 = EDGE_LOOP ( 'NONE', ( #106, #65, #220, #18, #48 ) ) ;
#164 = CARTESIAN_POINT ( 'NONE',  ( 0.0000000000000000000, 8.646520348559354500, -0.7190549562469477100 ) ) ;
#165 = CARTESIAN_POINT ( 'NONE',  ( 9.992007221626412800E-016, 4.884981308350691100E-015, 2.087134089679630200 ) ) ;
#166 = FACE_OUTER_BOUND ( 'NONE', #163, .T. ) ;
#167 = DIRECTION ( 'NONE',  ( 0.0000000000000000000, 0.0000000000000000000, 1.000000000000000000 ) ) ;
#168 = CC_DESIGN_APPROVAL ( #145, ( #137 ) ) ;
#169 = PERSON_AND_ORGANIZATION ( #105, #49 ) ;
#170 = CIRCLE ( 'NONE', #9, 25.39999999999999900 ) ;
#171 = CC_DESIGN_PERSON_AND_ORGANIZATION_ASSIGNMENT ( #198, #28, ( #137 ) ) ;
#172 = EDGE_CURVE ( 'NONE', #14, #80, #71, .T. ) ;
#173 = LOCAL_TIME ( 9, 3, 12.00000000000000000, #222 ) ;
#174 = VERTEX_POINT ( 'NONE', #225 ) ;
#175 = AXIS2_PLACEMENT_3D ( 'NONE', #212, #136, #61 ) ;
#176 = PERSON_AND_ORGANIZATION ( #105, #49 ) ;
#177 = PERSON_AND_ORGANIZATION ( #105, #49 ) ;
#178 = VERTEX_POINT ( 'NONE', #149 ) ;
#179 = CARTESIAN_POINT ( 'NONE',  ( 25.66909511597195200, 8.646520348559352700, 1.402903729216287600 ) ) ;
#180 = DIRECTION ( 'NONE',  ( 1.000000000000000000, 0.0000000000000000000, 0.0000000000000000000 ) ) ;
#181 = EDGE_CURVE ( 'NONE', #126, #14, #148, .T. ) ;
#182 = CARTESIAN_POINT ( 'NONE',  ( 25.20003601692390700, 25.70201399492507500, 4.220593668258763900 ) ) ;
#183 = CARTESIAN_POINT ( 'NONE',  ( -16.86690154772963300, 25.70201399492507500, 2.833381934204470800 ) ) ;
#184 = APPROVAL_PERSON_ORGANIZATION ( #169, #145, #215 ) ;
#185 = EDGE_LOOP ( 'NONE', ( #25, #223, #16 ) ) ;
#186 = AXIS2_PLACEMENT_3D ( 'NONE', #24, #91, #62 ) ;
#187 = DIRECTION ( 'NONE',  ( 1.000000000000000000, 0.0000000000000000000, 0.0000000000000000000 ) ) ;
#188 = DIRECTION ( 'NONE',  ( -0.0000000000000000000, -0.0000000000000000000, -1.000000000000000000 ) ) ;
#189 = DESIGN_CONTEXT ( 'detailed design', #194, 'design' ) ;
#190 = APPROVAL ( #230, 'UNSPECIFIED' ) ;
#191 = UNCERTAINTY_MEASURE_WITH_UNIT (LENGTH_MEASURE( 1.000000000000000100E-005 ), #108, 'distance_accuracy_value', 'NONE');
#192 = PERSON_AND_ORGANIZATION_ROLE ( 'design_owner' ) ;
#193 = SECURITY_CLASSIFICATION_LEVEL ( 'unclassified' ) ;
#194 = APPLICATION_CONTEXT ( 'configuration controlled 3d designs of mechanical parts and assemblies' ) ;
#195 = CYLINDRICAL_SURFACE ( 'NONE', #123, 25.39999999999999900 ) ;
#196 = ADVANCED_FACE ( 'NONE', ( #166 ), #195, .T. ) ;
#197 =( GEOMETRIC_REPRESENTATION_CONTEXT ( 3 ) GLOBAL_UNCERTAINTY_ASSIGNED_CONTEXT ( ( #191 ) ) GLOBAL_UNIT_ASSIGNED_CONTEXT ( ( #108, #4, #131 ) ) REPRESENTATION_CONTEXT ( 'NONE', 'WORKASPACE' ) );
#198 = PERSON_AND_ORGANIZATION ( #105, #49 ) ;
#199 = FACE_OUTER_BOUND ( 'NONE', #141, .T. ) ;
#200 = DIRECTION ( 'NONE',  ( 0.0000000000000000000, 0.0000000000000000000, 1.000000000000000000 ) ) ;
#201 = AXIS2_PLACEMENT_3D ( 'NONE', #152, #167, #118 ) ;
#202 = EDGE_LOOP ( 'NONE', ( #60, #34 ) ) ;
#203 = DIRECTION ( 'NONE',  ( -0.0000000000000000000, -0.0000000000000000000, -1.000000000000000000 ) ) ;
#204 = CARTESIAN_POINT ( 'NONE',  ( 8.447809566791471900, -25.70201399492503200, 2.137410172365877600 ) ) ;
#205 = CARTESIAN_POINT ( 'NONE',  ( 8.447809566791471900, 25.70201399492507100, 2.137410172365850100 ) ) ;
#206 = LOCAL_TIME ( 9, 3, 12.00000000000000000, #78 ) ;
#207 = FACE_OUTER_BOUND ( 'NONE', #210, .T. ) ;
#208 = APPLICATION_CONTEXT ( 'configuration controlled 3d designs of mechanical parts and assemblies' ) ;
#209 = CARTESIAN_POINT ( 'NONE',  ( -17.18085243408538800, 8.646520348559350900, -0.01012877294037672200 ) ) ;
#210 = EDGE_LOOP ( 'NONE', ( #154, #83, #153 ) ) ;
#211 = CC_DESIGN_PERSON_AND_ORGANIZATION_ASSIGNMENT ( #33, #29, ( #137 ) ) ;
#212 = CARTESIAN_POINT ( 'NONE',  ( 9.992007221626412800E-016, 4.884981308350691100E-015, 5.000000000000000000 ) ) ;
#213 = ADVANCED_BREP_SHAPE_REPRESENTATION ( '110-0515E BK7 pl-cx 50.8 F300', ( #139, #201 ), #197 ) ;
#214 = CIRCLE ( 'NONE', #17, 25.39999999999999900 ) ;
#215 = APPROVAL_ROLE ( '' ) ;
#216 = PERSON_AND_ORGANIZATION_ROLE ( 'classification_officer' ) ;
#217 = PRODUCT_DEFINITION ( 'UNKNOWN', '', #137, #189 ) ;
#218 = CC_DESIGN_SECURITY_CLASSIFICATION ( #160, ( #137 ) ) ;
#219 = AXIS2_PLACEMENT_3D ( 'NONE', #143, #36, #19 ) ;
#220 = ORIENTED_EDGE ( 'NONE', *, *, #150, .T. ) ;
#221 = DIRECTION ( 'NONE',  ( -0.0000000000000000000, -0.0000000000000000000, -1.000000000000000000 ) ) ;
#222 = COORDINATED_UNIVERSAL_TIME_OFFSET ( 2, 0, .AHEAD. ) ;
#223 = ORIENTED_EDGE ( 'NONE', *, *, #181, .T. ) ;
#224 = CARTESIAN_POINT ( 'NONE',  ( 4.263256414560599900E-014, 25.40000000000004100, 2.087134089679650600 ) ) ;
#225 = CARTESIAN_POINT ( 'NONE',  ( 25.39999999999999900, 4.884981308350691100E-015, 5.000000000000000000 ) ) ;
#226 = DATE_AND_TIME ( #156, #234 ) ;
#227 = ORIENTED_EDGE ( 'NONE', *, *, #77, .T. ) ;
#228 = CARTESIAN_POINT ( 'NONE',  ( -16.86690154772962900, -25.70201399492503600, 2.833381934204498800 ) ) ;
#229 = CARTESIAN_POINT ( 'NONE',  ( -25.66909511597207300, -8.646520348559317200, 1.402903729216351100 ) ) ;
#230 = APPROVAL_STATUS ( 'not_yet_approved' ) ;
#231 = APPROVAL_DATE_TIME ( #132, #13 ) ;
#232 = APPROVAL_DATE_TIME ( #32, #190 ) ;
#233 = PERSON_AND_ORGANIZATION ( #105, #49 ) ;
#234 = LOCAL_TIME ( 9, 3, 12.00000000000000000, #119 ) ;
#235 = LINE ( 'NONE', #93, #22 ) ;
ENDSEC;
END-ISO-10303-21;
