ISO-10303-21;
HEADER;
FILE_DESCRIPTION (( 'STEP AP203' ),
    '1' );
FILE_NAME ('110-0511E BK7 pl-cx 50.8 F250.STEP',
    '2018-12-21T07:03:26',
    ( '' ),
    ( '' ),
    'SwSTEP 2.0',
    'SolidWorks 2017',
    '' );
FILE_SCHEMA (( 'CONFIG_CONTROL_DESIGN' ));
ENDSEC;

DATA;
#1 = CIRCLE ( 'NONE', #207, 25.39999999999999900 ) ;
#2 = CC_DESIGN_APPROVAL ( #159, ( #98 ) ) ;
#3 =( BOUNDED_SURFACE ( )  B_SPLINE_SURFACE ( 3, 3, ( 
 ( #77, #82, #122, #133 ),
 ( #12, #225, #15, #135 ),
 ( #137, #11, #158, #63 ),
 ( #195, #29, #209, #228 ) ),
 .UNSPECIFIED., .F., .F., .F. ) 
 B_SPLINE_SURFACE_WITH_KNOTS ( ( 4, 4 ),
 ( 4, 4 ),
 ( 0.0000000000000000000, 1.000000000000000000 ),
 ( 0.0000000000000000000, 1.000000000000000000 ),
 .UNSPECIFIED. ) 
 GEOMETRIC_REPRESENTATION_ITEM ( )  RATIONAL_B_SPLINE_SURFACE ( (
 ( 1.000000000000000000, 0.9967260036734311200, 0.9967260036734311200, 1.000000000000000000),
 ( 0.9867803947825818400, 0.9835496793949334300, 0.9835496793949334300, 0.9867803947825818400),
 ( 0.9867803947825818400, 0.9835496793949334300, 0.9835496793949334300, 0.9867803947825818400),
 ( 1.000000000000000000, 0.9967260036734311200, 0.9967260036734311200, 1.000000000000000000) ) ) 
 REPRESENTATION_ITEM ( '' )  SURFACE ( )  );
#4 = EDGE_LOOP ( 'NONE', ( #49, #76, #211, #197, #150 ) ) ;
#5 = PERSON_AND_ORGANIZATION_ROLE ( 'creator' ) ;
#6 = ORGANIZATION ( 'UNSPECIFIED', 'UNSPECIFIED', '' ) ;
#7 = DIRECTION ( 'NONE',  ( 0.0000000000000000000, 0.0000000000000000000, 1.000000000000000000 ) ) ;
#8 = ORIENTED_EDGE ( 'NONE', *, *, #41, .T. ) ;
#9 = COORDINATED_UNIVERSAL_TIME_OFFSET ( 2, 0, .AHEAD. ) ;
#10 = VECTOR ( 'NONE', #38, 1000.000000000000000 ) ;
#11 = CARTESIAN_POINT ( 'NONE',  ( 8.644465534319985900, 8.681692205876895900, -0.8687762777638863300 ) ) ;
#12 = CARTESIAN_POINT ( 'NONE',  ( -4.377618313231190700E-014, -8.681692205876887100, -0.8687762777638513600 ) ) ;
#13 = DIRECTION ( 'NONE',  ( 1.000000000000000000, 0.0000000000000000000, 0.0000000000000000000 ) ) ;
#14 = AXIS2_PLACEMENT_3D ( 'NONE', #117, #17, #118 ) ;
#15 = CARTESIAN_POINT ( 'NONE',  ( 17.24647814603324000, -8.681692205876890600, -0.01311080459519861500 ) ) ;
#16 = LOCAL_TIME ( 9, 3, 26.00000000000000000, #99 ) ;
#17 = DIRECTION ( 'NONE',  ( -0.0000000000000000000, -0.0000000000000000000, -1.000000000000000000 ) ) ;
#18 = DIRECTION ( 'NONE',  ( 1.000000000000000000, 0.0000000000000000000, 0.0000000000000000000 ) ) ;
#19 = EDGE_CURVE ( 'NONE', #226, #124, #97, .T. ) ;
#20 = CIRCLE ( 'NONE', #91, 25.39999999999999900 ) ;
#21 = PERSON_AND_ORGANIZATION ( #96, #6 ) ;
#22 = EDGE_CURVE ( 'NONE', #124, #141, #53, .T. ) ;
#23 = CARTESIAN_POINT ( 'NONE',  ( -7.285838599102589800E-014, -25.70077098688818800, 2.571874195048680100 ) ) ;
#24 = CARTESIAN_POINT ( 'NONE',  ( -25.39999999999999900, 7.995584178184967200E-015, 2.511439193613009800 ) ) ;
#25 = ORIENTED_EDGE ( 'NONE', *, *, #19, .T. ) ;
#26 = DATE_AND_TIME ( #121, #87 ) ;
#27 = PERSON_AND_ORGANIZATION_ROLE ( 'design_supplier' ) ;
#28 = EDGE_CURVE ( 'NONE', #141, #124, #20, .T. ) ;
#29 = CARTESIAN_POINT ( 'NONE',  ( 8.416673061450382000, 25.70077098688819100, 2.571874195048671700 ) ) ;
#30 = CARTESIAN_POINT ( 'NONE',  ( -1.421085471520200100E-014, -1.421085471520200100E-014, 129.6999999999999900 ) ) ;
#31 = LOCAL_TIME ( 9, 3, 26.00000000000000000, #222 ) ;
#32 = CARTESIAN_POINT ( 'NONE',  ( 25.39999999999999900, 4.884981308350691100E-015, 5.400000000000000400 ) ) ;
#33 = DIRECTION ( 'NONE',  ( 1.000000000000000000, 1.014630051716460000E-031, -2.264349047295540000E-016 ) ) ;
#34 = EDGE_CURVE ( 'NONE', #57, #223, #178, .T. ) ;
#35 = DATE_AND_TIME ( #220, #31 ) ;
#36 = FACE_OUTER_BOUND ( 'NONE', #193, .T. ) ;
#37 = CARTESIAN_POINT ( 'NONE',  ( -8.416673061450437000, -25.70077098688818000, 2.571874195048683600 ) ) ;
#38 = DIRECTION ( 'NONE',  ( 0.0000000000000000000, 0.0000000000000000000, 1.000000000000000000 ) ) ;
#39 = CARTESIAN_POINT ( 'NONE',  ( 9.992007221626412800E-016, 4.884981308350691100E-015, 2.511439193613009800 ) ) ;
#40 = PERSON_AND_ORGANIZATION_ROLE ( 'design_owner' ) ;
#41 = EDGE_CURVE ( 'NONE', #223, #226, #1, .T. ) ;
#42 = APPROVAL_ROLE ( '' ) ;
#43 = ORIENTED_EDGE ( 'NONE', *, *, #81, .F. ) ;
#44 = DATE_AND_TIME ( #47, #16 ) ;
#45 = VECTOR ( 'NONE', #7, 1000.000000000000000 ) ;
#46 = DIRECTION ( 'NONE',  ( 0.0000000000000000000, -1.000000000000000000, -4.279965399480172100E-016 ) ) ;
#47 = CALENDAR_DATE ( 2018, 21, 12 ) ;
#48 = APPLICATION_CONTEXT ( 'configuration controlled 3d designs of mechanical parts and assemblies' ) ;
#49 = ORIENTED_EDGE ( 'NONE', *, *, #19, .F. ) ;
#50 = CC_DESIGN_PERSON_AND_ORGANIZATION_ASSIGNMENT ( #144, #40, ( #71 ) ) ;
#51 = CARTESIAN_POINT ( 'NONE',  ( 25.39999999999999900, 4.884981308350691100E-015, 2.511439193613009800 ) ) ;
#52 = CARTESIAN_POINT ( 'NONE',  ( -8.416673061450433500, 25.70077098688819100, 2.571874195048682300 ) ) ;
#53 = CIRCLE ( 'NONE', #14, 25.39999999999999900 ) ;
#54 = SHAPE_DEFINITION_REPRESENTATION ( #114, #219 ) ;
#55 = CC_DESIGN_PERSON_AND_ORGANIZATION_ASSIGNMENT ( #165, #113, ( #221 ) ) ;
#56 = ORIENTED_EDGE ( 'NONE', *, *, #81, .T. ) ;
#57 = VERTEX_POINT ( 'NONE', #136 ) ;
#58 = CARTESIAN_POINT ( 'NONE',  ( 9.992007221626412800E-016, 4.884981308350691100E-015, 2.511439193613009800 ) ) ;
#59 = DIRECTION ( 'NONE',  ( 0.0000000000000000000, 0.0000000000000000000, 1.000000000000000000 ) ) ;
#60 = DIRECTION ( 'NONE',  ( 1.000000000000000000, 0.0000000000000000000, -0.0000000000000000000 ) ) ;
#61 = APPROVAL_PERSON_ORGANIZATION ( #78, #62, #229 ) ;
#62 = APPROVAL ( #210, 'UNSPECIFIED' ) ;
#63 = CARTESIAN_POINT ( 'NONE',  ( 25.72154896206418700, 8.681692205876892400, 1.689815804894296600 ) ) ;
#64 = PERSON_AND_ORGANIZATION_ROLE ( 'creator' ) ;
#65 = ORIENTED_EDGE ( 'NONE', *, *, #215, .F. ) ;
#66 = CARTESIAN_POINT ( 'NONE',  ( 0.0000000000000000000, 0.0000000000000000000, 0.0000000000000000000 ) ) ;
#67 = APPROVAL_PERSON_ORGANIZATION ( #172, #159, #175 ) ;
#68 =( GEOMETRIC_REPRESENTATION_CONTEXT ( 3 ) GLOBAL_UNCERTAINTY_ASSIGNED_CONTEXT ( ( #101 ) ) GLOBAL_UNIT_ASSIGNED_CONTEXT ( ( #92, #217, #111 ) ) REPRESENTATION_CONTEXT ( 'NONE', 'WORKASPACE' ) );
#69 = CARTESIAN_POINT ( 'NONE',  ( 9.992007221626412800E-016, 4.884981308350691100E-015, 2.511439193613009800 ) ) ;
#70 = CC_DESIGN_PERSON_AND_ORGANIZATION_ASSIGNMENT ( #95, #5, ( #74 ) ) ;
#71 = PRODUCT ( '110-0511E BK7 pl-cx 50.8 F250', '110-0511E BK7 pl-cx 50.8 F250', '', ( #127 ) ) ;
#72 = ORIENTED_EDGE ( 'NONE', *, *, #75, .T. ) ;
#73 = ADVANCED_FACE ( 'NONE', ( #36 ), #174, .T. ) ;
#74 = PRODUCT_DEFINITION_FORMATION_WITH_SPECIFIED_SOURCE ( 'ANY', '', #71, .NOT_KNOWN. ) ;
#75 = EDGE_CURVE ( 'NONE', #223, #230, #163, .T. ) ;
#76 = ORIENTED_EDGE ( 'NONE', *, *, #41, .F. ) ;
#77 = CARTESIAN_POINT ( 'NONE',  ( -4.299709977029289700E-014, -25.70077098688818800, 2.571874195048701000 ) ) ;
#78 = PERSON_AND_ORGANIZATION ( #96, #6 ) ;
#79 = ORIENTED_EDGE ( 'NONE', *, *, #75, .F. ) ;
#80 = CARTESIAN_POINT ( 'NONE',  ( 9.992007221626412800E-016, 4.884981308350691100E-015, 2.511439193613009800 ) ) ;
#81 = EDGE_CURVE ( 'NONE', #230, #57, #191, .T. ) ;
#82 = CARTESIAN_POINT ( 'NONE',  ( 8.416673061450380200, -25.70077098688818000, 2.571874195048699200 ) ) ;
#83 = DATE_TIME_ROLE ( 'creation_date' ) ;
#84 = PERSON_AND_ORGANIZATION ( #96, #6 ) ;
#85 = ORIENTED_EDGE ( 'NONE', *, *, #34, .T. ) ;
#86 = AXIS2_PLACEMENT_3D ( 'NONE', #80, #154, #143 ) ;
#87 = LOCAL_TIME ( 9, 3, 26.00000000000000000, #129 ) ;
#88 = CARTESIAN_POINT ( 'NONE',  ( -6.938893903907228400E-014, 25.70077098688819800, 2.571874195048679200 ) ) ;
#89 = CARTESIAN_POINT ( 'NONE',  ( -8.644465534320039200, 8.681692205876892400, -0.8687762777638744500 ) ) ;
#90 = ORIENTED_EDGE ( 'NONE', *, *, #22, .T. ) ;
#91 = AXIS2_PLACEMENT_3D ( 'NONE', #206, #171, #100 ) ;
#92 =( LENGTH_UNIT ( ) NAMED_UNIT ( * ) SI_UNIT ( .MILLI., .METRE. ) );
#93 = CLOSED_SHELL ( 'NONE', ( #128, #185, #148, #187, #73 ) ) ;
#94 = AXIS2_PLACEMENT_3D ( 'NONE', #66, #147, #106 ) ;
#95 = PERSON_AND_ORGANIZATION ( #96, #6 ) ;
#96 = PERSON ( 'UNSPECIFIED', 'UNSPECIFIED', 'UNSPECIFIED', ('UNSPECIFIED'), ('UNSPECIFIED'), ('UNSPECIFIED') ) ;
#97 = LINE ( 'NONE', #224, #45 ) ;
#98 = PRODUCT_DEFINITION ( 'UNKNOWN', '', #74, #212 ) ;
#99 = COORDINATED_UNIVERSAL_TIME_OFFSET ( 2, 0, .AHEAD. ) ;
#100 = DIRECTION ( 'NONE',  ( 1.000000000000000000, 0.0000000000000000000, 0.0000000000000000000 ) ) ;
#101 = UNCERTAINTY_MEASURE_WITH_UNIT (LENGTH_MEASURE( 1.000000000000000100E-005 ), #92, 'distance_accuracy_value', 'NONE');
#102 = EDGE_LOOP ( 'NONE', ( #186, #25, #90, #65, #43 ) ) ;
#103 = APPLICATION_PROTOCOL_DEFINITION ( 'international standard', 'config_control_design', 1994, #48 ) ;
#104 = EDGE_LOOP ( 'NONE', ( #79, #8, #167 ) ) ;
#105 = CC_DESIGN_DATE_AND_TIME_ASSIGNMENT ( #26, #83, ( #98 ) ) ;
#106 = DIRECTION ( 'NONE',  ( 1.000000000000000000, 0.0000000000000000000, 0.0000000000000000000 ) ) ;
#107 = CALENDAR_DATE ( 2018, 21, 12 ) ;
#108 = AXIS2_PLACEMENT_3D ( 'NONE', #69, #216, #233 ) ;
#109 = CARTESIAN_POINT ( 'NONE',  ( -17.24647814603323000, -8.681692205876892400, -0.01311080459522181800 ) ) ;
#110 = CARTESIAN_POINT ( 'NONE',  ( -16.79201188787311200, -25.70077098688818400, 3.404991813372126000 ) ) ;
#111 =( NAMED_UNIT ( * ) SI_UNIT ( $, .STERADIAN. ) SOLID_ANGLE_UNIT ( ) );
#112 = LINE ( 'NONE', #51, #10 ) ;
#113 = PERSON_AND_ORGANIZATION_ROLE ( 'classification_officer' ) ;
#114 = PRODUCT_DEFINITION_SHAPE ( 'NONE', 'NONE',  #98 ) ;
#115 = CALENDAR_DATE ( 2018, 21, 12 ) ;
#116 = ORIENTED_EDGE ( 'NONE', *, *, #28, .F. ) ;
#117 = CARTESIAN_POINT ( 'NONE',  ( 9.992007221626412800E-016, 4.884981308350691100E-015, 5.400000000000000400 ) ) ;
#118 = DIRECTION ( 'NONE',  ( 1.000000000000000000, 0.0000000000000000000, 0.0000000000000000000 ) ) ;
#119 = DIRECTION ( 'NONE',  ( -0.0000000000000000000, -0.0000000000000000000, -1.000000000000000000 ) ) ;
#120 = CC_DESIGN_APPROVAL ( #62, ( #74 ) ) ;
#121 = CALENDAR_DATE ( 2018, 21, 12 ) ;
#122 = CARTESIAN_POINT ( 'NONE',  ( 16.79201188787311900, -25.70077098688818000, 3.404991813372148200 ) ) ;
#123 = CARTESIAN_POINT ( 'NONE',  ( -25.72154896206410900, -8.681692205876890600, 1.689815804894286600 ) ) ;
#124 = VERTEX_POINT ( 'NONE', #192 ) ;
#125 = CARTESIAN_POINT ( 'NONE',  ( -7.285838599102588500E-014, 8.681692205876890600, -0.8687762777638783400 ) ) ;
#126 = LOCAL_TIME ( 9, 3, 26.00000000000000000, #213 ) ;
#127 = MECHANICAL_CONTEXT ( 'NONE', #200, 'mechanical' ) ;
#128 = ADVANCED_FACE ( 'NONE', ( #139 ), #3, .T. ) ;
#129 = COORDINATED_UNIVERSAL_TIME_OFFSET ( 2, 0, .AHEAD. ) ;
#130 = FACE_OUTER_BOUND ( 'NONE', #102, .T. ) ;
#131 = CC_DESIGN_DATE_AND_TIME_ASSIGNMENT ( #203, #188, ( #221 ) ) ;
#132 = AXIS2_PLACEMENT_3D ( 'NONE', #173, #160, #194 ) ;
#133 = CARTESIAN_POINT ( 'NONE',  ( 25.04375399361375200, -25.70077098688818800, 5.063044177953070600 ) ) ;
#134 = CIRCLE ( 'NONE', #108, 25.39999999999999900 ) ;
#135 = CARTESIAN_POINT ( 'NONE',  ( 25.72154896206418000, -8.681692205876888800, 1.689815804894328800 ) ) ;
#136 = CARTESIAN_POINT ( 'NONE',  ( 25.39999999999999900, 4.884981308350691100E-015, 2.511439193613009800 ) ) ;
#137 = CARTESIAN_POINT ( 'NONE',  ( -4.377618313231190700E-014, 8.681692205876894200, -0.8687762777638843300 ) ) ;
#138 = CC_DESIGN_SECURITY_CLASSIFICATION ( #221, ( #74 ) ) ;
#139 = FACE_OUTER_BOUND ( 'NONE', #168, .T. ) ;
#140 = CARTESIAN_POINT ( 'NONE',  ( -25.04375399361369100, -25.70077098688819100, 5.063044177953029700 ) ) ;
#141 = VERTEX_POINT ( 'NONE', #32 ) ;
#142 = APPROVAL_STATUS ( 'not_yet_approved' ) ;
#143 = DIRECTION ( 'NONE',  ( 1.000000000000000000, 0.0000000000000000000, 0.0000000000000000000 ) ) ;
#144 = PERSON_AND_ORGANIZATION ( #96, #6 ) ;
#145 = ORIENTED_EDGE ( 'NONE', *, *, #22, .F. ) ;
#146 = CARTESIAN_POINT ( 'NONE',  ( -8.644465534320039200, -8.681692205876892400, -0.8687762777638690100 ) ) ;
#147 = DIRECTION ( 'NONE',  ( 0.0000000000000000000, 0.0000000000000000000, 1.000000000000000000 ) ) ;
#148 = ADVANCED_FACE ( 'NONE', ( #153 ), #164, .T. ) ;
#149 = PERSON_AND_ORGANIZATION ( #96, #6 ) ;
#150 = ORIENTED_EDGE ( 'NONE', *, *, #28, .T. ) ;
#151 = APPROVAL_STATUS ( 'not_yet_approved' ) ;
#152 = AXIS2_PLACEMENT_3D ( 'NONE', #58, #119, #155 ) ;
#153 = FACE_OUTER_BOUND ( 'NONE', #104, .T. ) ;
#154 = DIRECTION ( 'NONE',  ( 0.0000000000000000000, 0.0000000000000000000, 1.000000000000000000 ) ) ;
#155 = DIRECTION ( 'NONE',  ( 1.000000000000000000, 0.0000000000000000000, 0.0000000000000000000 ) ) ;
#156 = DIRECTION ( 'NONE',  ( -0.0000000000000000000, -0.0000000000000000000, -1.000000000000000000 ) ) ;
#157 = APPROVAL_PERSON_ORGANIZATION ( #149, #189, #42 ) ;
#158 = CARTESIAN_POINT ( 'NONE',  ( 17.24647814603324400, 8.681692205876894200, -0.01311080459523114100 ) ) ;
#159 = APPROVAL ( #142, 'UNSPECIFIED' ) ;
#160 = DIRECTION ( 'NONE',  ( -0.0000000000000000000, -0.0000000000000000000, -1.000000000000000000 ) ) ;
#161 = MANIFOLD_SOLID_BREP ( 'Imported1', #93 ) ;
#162 = PRODUCT_RELATED_PRODUCT_CATEGORY ( 'detail', '', ( #71 ) ) ;
#163 = CIRCLE ( 'NONE', #205, 129.6999999999999900 ) ;
#164 =( BOUNDED_SURFACE ( )  B_SPLINE_SURFACE ( 3, 3, ( 
 ( #140, #110, #37, #23 ),
 ( #123, #109, #146, #234 ),
 ( #180, #201, #89, #125 ),
 ( #166, #181, #52, #88 ) ),
 .UNSPECIFIED., .F., .F., .F. ) 
 B_SPLINE_SURFACE_WITH_KNOTS ( ( 4, 4 ),
 ( 4, 4 ),
 ( 0.0000000000000000000, 1.000000000000000000 ),
 ( 0.0000000000000000000, 1.000000000000000000 ),
 .UNSPECIFIED. ) 
 GEOMETRIC_REPRESENTATION_ITEM ( )  RATIONAL_B_SPLINE_SURFACE ( (
 ( 1.000000000000000000, 0.9967260036734311200, 0.9967260036734311200, 1.000000000000000000),
 ( 0.9867803947825818400, 0.9835496793949334300, 0.9835496793949334300, 0.9867803947825818400),
 ( 0.9867803947825818400, 0.9835496793949334300, 0.9835496793949334300, 0.9867803947825818400),
 ( 1.000000000000000000, 0.9967260036734311200, 0.9967260036734311200, 1.000000000000000000) ) ) 
 REPRESENTATION_ITEM ( '' )  SURFACE ( )  );
#165 = PERSON_AND_ORGANIZATION ( #96, #6 ) ;
#166 = CARTESIAN_POINT ( 'NONE',  ( -25.04375399361369100, 25.70077098688819500, 5.063044177953029700 ) ) ;
#167 = ORIENTED_EDGE ( 'NONE', *, *, #199, .T. ) ;
#168 = EDGE_LOOP ( 'NONE', ( #85, #72, #56 ) ) ;
#169 = CARTESIAN_POINT ( 'NONE',  ( 0.0000000000000000000, 52.02000000000000300, 5.400000000000000400 ) ) ;
#170 = AXIS2_PLACEMENT_3D ( 'NONE', #39, #214, #18 ) ;
#171 = DIRECTION ( 'NONE',  ( -0.0000000000000000000, -0.0000000000000000000, -1.000000000000000000 ) ) ;
#172 = PERSON_AND_ORGANIZATION ( #96, #6 ) ;
#173 = CARTESIAN_POINT ( 'NONE',  ( 9.992007221626412800E-016, 4.884981308350691100E-015, 2.511439193613009800 ) ) ;
#174 = PLANE ( 'NONE',  #232 ) ;
#175 = APPROVAL_ROLE ( '' ) ;
#176 = APPROVAL_DATE_TIME ( #196, #62 ) ;
#177 = CYLINDRICAL_SURFACE ( 'NONE', #86, 25.39999999999999900 ) ;
#178 = CIRCLE ( 'NONE', #132, 25.39999999999999900 ) ;
#179 = APPLICATION_PROTOCOL_DEFINITION ( 'international standard', 'config_control_design', 1994, #200 ) ;
#180 = CARTESIAN_POINT ( 'NONE',  ( -25.72154896206410900, 8.681692205876890600, 1.689815804894282000 ) ) ;
#181 = CARTESIAN_POINT ( 'NONE',  ( -16.79201188787311600, 25.70077098688818800, 3.404991813372125500 ) ) ;
#182 = CARTESIAN_POINT ( 'NONE',  ( -4.301078436408532300E-014, 25.39999999999998400, 2.511439193613014300 ) ) ;
#183 = CYLINDRICAL_SURFACE ( 'NONE', #170, 25.39999999999999900 ) ;
#184 = CC_DESIGN_PERSON_AND_ORGANIZATION_ASSIGNMENT ( #84, #64, ( #98 ) ) ;
#185 = ADVANCED_FACE ( 'NONE', ( #130 ), #177, .T. ) ;
#186 = ORIENTED_EDGE ( 'NONE', *, *, #199, .F. ) ;
#187 = ADVANCED_FACE ( 'NONE', ( #231 ), #183, .T. ) ;
#188 = DATE_TIME_ROLE ( 'classification_date' ) ;
#189 = APPROVAL ( #151, 'UNSPECIFIED' ) ;
#190 = APPROVAL_DATE_TIME ( #44, #189 ) ;
#191 = CIRCLE ( 'NONE', #152, 25.39999999999999900 ) ;
#192 = CARTESIAN_POINT ( 'NONE',  ( -25.39999999999999900, 7.995584178184967200E-015, 5.400000000000000400 ) ) ;
#193 = EDGE_LOOP ( 'NONE', ( #116, #145 ) ) ;
#194 = DIRECTION ( 'NONE',  ( 1.000000000000000000, 0.0000000000000000000, 0.0000000000000000000 ) ) ;
#195 = CARTESIAN_POINT ( 'NONE',  ( -4.299709977029289700E-014, 25.70077098688819800, 2.571874195048673400 ) ) ;
#196 = DATE_AND_TIME ( #107, #126 ) ;
#197 = ORIENTED_EDGE ( 'NONE', *, *, #215, .T. ) ;
#198 = LOCAL_TIME ( 9, 3, 26.00000000000000000, #9 ) ;
#199 = EDGE_CURVE ( 'NONE', #226, #230, #134, .T. ) ;
#200 = APPLICATION_CONTEXT ( 'configuration controlled 3d designs of mechanical parts and assemblies' ) ;
#201 = CARTESIAN_POINT ( 'NONE',  ( -17.24647814603323000, 8.681692205876892400, -0.01311080459522702100 ) ) ;
#202 = SECURITY_CLASSIFICATION_LEVEL ( 'unclassified' ) ;
#203 = DATE_AND_TIME ( #115, #198 ) ;
#204 = CC_DESIGN_APPROVAL ( #189, ( #221 ) ) ;
#205 = AXIS2_PLACEMENT_3D ( 'NONE', #30, #33, #46 ) ;
#206 = CARTESIAN_POINT ( 'NONE',  ( 9.992007221626412800E-016, 4.884981308350691100E-015, 5.400000000000000400 ) ) ;
#207 = AXIS2_PLACEMENT_3D ( 'NONE', #227, #156, #13 ) ;
#208 = APPROVAL_DATE_TIME ( #35, #159 ) ;
#209 = CARTESIAN_POINT ( 'NONE',  ( 16.79201188787313000, 25.70077098688819100, 3.404991813372121100 ) ) ;
#210 = APPROVAL_STATUS ( 'not_yet_approved' ) ;
#211 = ORIENTED_EDGE ( 'NONE', *, *, #34, .F. ) ;
#212 = DESIGN_CONTEXT ( 'detailed design', #48, 'design' ) ;
#213 = COORDINATED_UNIVERSAL_TIME_OFFSET ( 2, 0, .AHEAD. ) ;
#214 = DIRECTION ( 'NONE',  ( 0.0000000000000000000, 0.0000000000000000000, 1.000000000000000000 ) ) ;
#215 = EDGE_CURVE ( 'NONE', #57, #141, #112, .T. ) ;
#216 = DIRECTION ( 'NONE',  ( -0.0000000000000000000, -0.0000000000000000000, -1.000000000000000000 ) ) ;
#217 =( NAMED_UNIT ( * ) PLANE_ANGLE_UNIT ( ) SI_UNIT ( $, .RADIAN. ) );
#218 = CC_DESIGN_PERSON_AND_ORGANIZATION_ASSIGNMENT ( #21, #27, ( #74 ) ) ;
#219 = ADVANCED_BREP_SHAPE_REPRESENTATION ( '110-0511E BK7 pl-cx 50.8 F250', ( #161, #94 ), #68 ) ;
#220 = CALENDAR_DATE ( 2018, 21, 12 ) ;
#221 = SECURITY_CLASSIFICATION ( '', '', #202 ) ;
#222 = COORDINATED_UNIVERSAL_TIME_OFFSET ( 2, 0, .AHEAD. ) ;
#223 = VERTEX_POINT ( 'NONE', #235 ) ;
#224 = CARTESIAN_POINT ( 'NONE',  ( -25.39999999999999900, 7.995584178184967200E-015, 2.511439193613009800 ) ) ;
#225 = CARTESIAN_POINT ( 'NONE',  ( 8.644465534319982300, -8.681692205876888800, -0.8687762777638533600 ) ) ;
#226 = VERTEX_POINT ( 'NONE', #24 ) ;
#227 = CARTESIAN_POINT ( 'NONE',  ( 9.992007221626412800E-016, 4.884981308350691100E-015, 2.511439193613009800 ) ) ;
#228 = CARTESIAN_POINT ( 'NONE',  ( 25.04375399361376300, 25.70077098688819800, 5.063044177953044000 ) ) ;
#229 = APPROVAL_ROLE ( '' ) ;
#230 = VERTEX_POINT ( 'NONE', #182 ) ;
#231 = FACE_OUTER_BOUND ( 'NONE', #4, .T. ) ;
#232 = AXIS2_PLACEMENT_3D ( 'NONE', #169, #59, #60 ) ;
#233 = DIRECTION ( 'NONE',  ( 1.000000000000000000, 0.0000000000000000000, 0.0000000000000000000 ) ) ;
#234 = CARTESIAN_POINT ( 'NONE',  ( -7.285838599102588500E-014, -8.681692205876890600, -0.8687762777638729000 ) ) ;
#235 = CARTESIAN_POINT ( 'NONE',  ( -4.301078436408532300E-014, -25.39999999999999100, 2.511439193613014300 ) ) ;
ENDSEC;
END-ISO-10303-21;
