ISO-10303-21;
HEADER;
FILE_DESCRIPTION (( 'STEP AP203' ),
    '1' );
FILE_NAME ('110-0507E BK7 pl-cx 50.8 F150.STEP',
    '2018-12-21T07:03:53',
    ( '' ),
    ( '' ),
    'SwSTEP 2.0',
    'SolidWorks 2017',
    '' );
FILE_SCHEMA (( 'CONFIG_CONTROL_DESIGN' ));
ENDSEC;

DATA;
#1 = VERTEX_POINT ( 'NONE', #228 ) ;
#2 = PERSON_AND_ORGANIZATION_ROLE ( 'classification_officer' ) ;
#3 = CC_DESIGN_PERSON_AND_ORGANIZATION_ASSIGNMENT ( #7, #81, ( #39 ) ) ;
#4 = ORIENTED_EDGE ( 'NONE', *, *, #102, .T. ) ;
#5 = AXIS2_PLACEMENT_3D ( 'NONE', #124, #14, #193 ) ;
#6 = AXIS2_PLACEMENT_3D ( 'NONE', #164, #184, #127 ) ;
#7 = PERSON_AND_ORGANIZATION ( #9, #110 ) ;
#8 = DIRECTION ( 'NONE',  ( 1.000000000000000000, 0.0000000000000000000, -0.0000000000000000000 ) ) ;
#9 = PERSON ( 'UNSPECIFIED', 'UNSPECIFIED', 'UNSPECIFIED', ('UNSPECIFIED'), ('UNSPECIFIED'), ('UNSPECIFIED') ) ;
#10 = ORIENTED_EDGE ( 'NONE', *, *, #166, .F. ) ;
#11 = ADVANCED_FACE ( 'NONE', ( #186 ), #231, .T. ) ;
#12 = AXIS2_PLACEMENT_3D ( 'NONE', #154, #54, #8 ) ;
#13 = CARTESIAN_POINT ( 'NONE',  ( -2.131628207280299900E-014, -25.69327870474624500, 4.364431519660525000 ) ) ;
#14 = DIRECTION ( 'NONE',  ( -0.0000000000000000000, -0.0000000000000000000, -1.000000000000000000 ) ) ;
#15 = CARTESIAN_POINT ( 'NONE',  ( -26.04289053720684800, 8.897124612084848400, 2.885768728962216500 ) ) ;
#16 = CALENDAR_DATE ( 2018, 21, 12 ) ;
#17 = CARTESIAN_POINT ( 'NONE',  ( -24.11375381737208900, 25.69327870474623100, 8.435808788603505800 ) ) ;
#18 = CALENDAR_DATE ( 2018, 21, 12 ) ;
#19 = DIRECTION ( 'NONE',  ( 1.000000000000000000, 0.0000000000000000000, 0.0000000000000000000 ) ) ;
#20 = DIRECTION ( 'NONE',  ( 0.0000000000000000000, 0.0000000000000000000, 1.000000000000000000 ) ) ;
#21 = CC_DESIGN_APPROVAL ( #96, ( #151 ) ) ;
#22 = LOCAL_TIME ( 9, 3, 53.00000000000000000, #146 ) ;
#23 = MANIFOLD_SOLID_BREP ( 'Imported1', #227 ) ;
#24 = VERTEX_POINT ( 'NONE', #88 ) ;
#25 = DATE_TIME_ROLE ( 'classification_date' ) ;
#26 = APPROVAL_ROLE ( '' ) ;
#27 = AXIS2_PLACEMENT_3D ( 'NONE', #218, #20, #100 ) ;
#28 = CIRCLE ( 'NONE', #69, 25.39999999999999900 ) ;
#29 = CC_DESIGN_DATE_AND_TIME_ASSIGNMENT ( #42, #25, ( #173 ) ) ;
#30 = AXIS2_PLACEMENT_3D ( 'NONE', #197, #162, #75 ) ;
#31 = CARTESIAN_POINT ( 'NONE',  ( 26.04289053720682300, -8.897124612084848400, 2.885768728962172500 ) ) ;
#32 = ADVANCED_BREP_SHAPE_REPRESENTATION ( '110-0507E BK7 pl-cx 50.8 F150', ( #23, #27 ), #46 ) ;
#33 = PERSON_AND_ORGANIZATION ( #9, #110 ) ;
#34 = FACE_OUTER_BOUND ( 'NONE', #49, .T. ) ;
#35 = CARTESIAN_POINT ( 'NONE',  ( 25.39999999999999900, 4.884981308350691100E-015, 7.200000000000001100 ) ) ;
#36 = ADVANCED_FACE ( 'NONE', ( #189 ), #181, .T. ) ;
#37 = CARTESIAN_POINT ( 'NONE',  ( 16.34164086564378600, -25.69327870474624100, 5.734302434638251200 ) ) ;
#38 = CARTESIAN_POINT ( 'NONE',  ( -8.228236525218353100, 25.69327870474623800, 4.364431519660570300 ) ) ;
#39 = PRODUCT_DEFINITION ( 'UNKNOWN', '', #151, #152 ) ;
#40 = DIRECTION ( 'NONE',  ( 1.000000000000000000, 0.0000000000000000000, 0.0000000000000000000 ) ) ;
#41 = CARTESIAN_POINT ( 'NONE',  ( -4.510281037539698400E-014, -8.897124612084839500, -1.511324869727787700 ) ) ;
#42 = DATE_AND_TIME ( #16, #131 ) ;
#43 = LINE ( 'NONE', #93, #171 ) ;
#44 = ORIENTED_EDGE ( 'NONE', *, *, #166, .T. ) ;
#45 =( LENGTH_UNIT ( ) NAMED_UNIT ( * ) SI_UNIT ( .MILLI., .METRE. ) );
#46 =( GEOMETRIC_REPRESENTATION_CONTEXT ( 3 ) GLOBAL_UNCERTAINTY_ASSIGNED_CONTEXT ( ( #204 ) ) GLOBAL_UNIT_ASSIGNED_CONTEXT ( ( #45, #109, #167 ) ) REPRESENTATION_CONTEXT ( 'NONE', 'WORKASPACE' ) );
#47 = CC_DESIGN_PERSON_AND_ORGANIZATION_ASSIGNMENT ( #114, #2, ( #173 ) ) ;
#48 = FACE_OUTER_BOUND ( 'NONE', #155, .T. ) ;
#49 = EDGE_LOOP ( 'NONE', ( #50, #44, #196 ) ) ;
#50 = ORIENTED_EDGE ( 'NONE', *, *, #211, .F. ) ;
#51 = CC_DESIGN_APPROVAL ( #219, ( #39 ) ) ;
#52 = CARTESIAN_POINT ( 'NONE',  ( -2.131628207280299300E-014, 8.897124612084844800, -1.511324869727789500 ) ) ;
#53 = VERTEX_POINT ( 'NONE', #35 ) ;
#54 = DIRECTION ( 'NONE',  ( 0.0000000000000000000, 0.0000000000000000000, 1.000000000000000000 ) ) ;
#55 = CARTESIAN_POINT ( 'NONE',  ( 8.886507872786285800, 8.897124612084844800, -1.511324869727789500 ) ) ;
#56 = DIRECTION ( 'NONE',  ( 1.000000000000000000, 0.0000000000000000000, 0.0000000000000000000 ) ) ;
#57 = PERSON_AND_ORGANIZATION ( #9, #110 ) ;
#58 = EDGE_LOOP ( 'NONE', ( #4, #135, #210 ) ) ;
#59 = PRODUCT_DEFINITION_SHAPE ( 'NONE', 'NONE',  #39 ) ;
#60 = AXIS2_PLACEMENT_3D ( 'NONE', #77, #194, #182 ) ;
#61 = DATE_TIME_ROLE ( 'creation_date' ) ;
#62 = APPLICATION_PROTOCOL_DEFINITION ( 'international standard', 'config_control_design', 1994, #185 ) ;
#63 = AXIS2_PLACEMENT_3D ( 'NONE', #158, #94, #19 ) ;
#64 = LOCAL_TIME ( 9, 3, 53.00000000000000000, #202 ) ;
#65 = ORIENTED_EDGE ( 'NONE', *, *, #224, .F. ) ;
#66 = DATE_AND_TIME ( #179, #64 ) ;
#67 = APPROVAL_DATE_TIME ( #159, #219 ) ;
#68 = CARTESIAN_POINT ( 'NONE',  ( 8.228236525218301600, 25.69327870474623800, 4.364431519660552500 ) ) ;
#69 = AXIS2_PLACEMENT_3D ( 'NONE', #201, #101, #222 ) ;
#70 = COORDINATED_UNIVERSAL_TIME_OFFSET ( 2, 0, .AHEAD. ) ;
#71 = ORIENTED_EDGE ( 'NONE', *, *, #76, .F. ) ;
#72 = CARTESIAN_POINT ( 'NONE',  ( 16.34164086564378200, 25.69327870474623800, 5.734302434638279600 ) ) ;
#73 = CARTESIAN_POINT ( 'NONE',  ( 9.992007221626412800E-016, 4.884981308350691100E-015, 4.262490864747840100 ) ) ;
#74 = CARTESIAN_POINT ( 'NONE',  ( -2.131628207280299900E-014, -25.40000000000000600, 4.262490864747831200 ) ) ;
#75 = DIRECTION ( 'NONE',  ( 1.000000000000000000, 0.0000000000000000000, 0.0000000000000000000 ) ) ;
#76 = EDGE_CURVE ( 'NONE', #53, #103, #105, .T. ) ;
#77 = CARTESIAN_POINT ( 'NONE',  ( 9.992007221626412800E-016, 4.884981308350691100E-015, 4.262490864747840100 ) ) ;
#78 = APPLICATION_PROTOCOL_DEFINITION ( 'international standard', 'config_control_design', 1994, #168 ) ;
#79 = LOCAL_TIME ( 9, 3, 53.00000000000000000, #70 ) ;
#80 = APPROVAL_STATUS ( 'not_yet_approved' ) ;
#81 = PERSON_AND_ORGANIZATION_ROLE ( 'creator' ) ;
#82 = ORIENTED_EDGE ( 'NONE', *, *, #86, .T. ) ;
#83 = CC_DESIGN_PERSON_AND_ORGANIZATION_ASSIGNMENT ( #129, #112, ( #151 ) ) ;
#84 = CC_DESIGN_APPROVAL ( #223, ( #173 ) ) ;
#85 = APPROVAL_DATE_TIME ( #118, #223 ) ;
#86 = EDGE_CURVE ( 'NONE', #103, #53, #198, .T. ) ;
#87 = ADVANCED_FACE ( 'NONE', ( #48 ), #207, .T. ) ;
#88 = CARTESIAN_POINT ( 'NONE',  ( 25.39999999999999900, 4.884981308350691100E-015, 4.262490864747840100 ) ) ;
#89 = VECTOR ( 'NONE', #235, 1000.000000000000000 ) ;
#90 = DIRECTION ( 'NONE',  ( -0.0000000000000000000, -0.0000000000000000000, -1.000000000000000000 ) ) ;
#91 = CARTESIAN_POINT ( 'NONE',  ( -4.510281037539698400E-014, -25.69327870474622700, 4.364431519660540100 ) ) ;
#92 = ADVANCED_FACE ( 'NONE', ( #34 ), #133, .T. ) ;
#93 = CARTESIAN_POINT ( 'NONE',  ( 25.39999999999999900, 4.884981308350691100E-015, 4.262490864747840100 ) ) ;
#94 = DIRECTION ( 'NONE',  ( -0.0000000000000000000, -0.0000000000000000000, -1.000000000000000000 ) ) ;
#95 = EDGE_LOOP ( 'NONE', ( #111, #144, #82, #115, #65 ) ) ;
#96 = APPROVAL ( #145, 'UNSPECIFIED' ) ;
#97 = APPROVAL_ROLE ( '' ) ;
#98 = SECURITY_CLASSIFICATION_LEVEL ( 'unclassified' ) ;
#99 = LOCAL_TIME ( 9, 3, 53.00000000000000000, #147 ) ;
#100 = DIRECTION ( 'NONE',  ( 1.000000000000000000, 0.0000000000000000000, 0.0000000000000000000 ) ) ;
#101 = DIRECTION ( 'NONE',  ( -0.0000000000000000000, -0.0000000000000000000, -1.000000000000000000 ) ) ;
#102 = EDGE_CURVE ( 'NONE', #24, #175, #174, .T. ) ;
#103 = VERTEX_POINT ( 'NONE', #106 ) ;
#104 = CARTESIAN_POINT ( 'NONE',  ( -24.11375381737208900, -25.69327870474623100, 8.435808788603477400 ) ) ;
#105 = CIRCLE ( 'NONE', #5, 25.39999999999999900 ) ;
#106 = CARTESIAN_POINT ( 'NONE',  ( -25.39999999999999900, 7.995584178184967200E-015, 7.200000000000001100 ) ) ;
#107 = CARTESIAN_POINT ( 'NONE',  ( -25.39999999999999900, 7.995584178184967200E-015, 4.262490864747840100 ) ) ;
#108 = MECHANICAL_CONTEXT ( 'NONE', #168, 'mechanical' ) ;
#109 =( NAMED_UNIT ( * ) PLANE_ANGLE_UNIT ( ) SI_UNIT ( $, .RADIAN. ) );
#110 = ORGANIZATION ( 'UNSPECIFIED', 'UNSPECIFIED', '' ) ;
#111 = ORIENTED_EDGE ( 'NONE', *, *, #176, .F. ) ;
#112 = PERSON_AND_ORGANIZATION_ROLE ( 'design_supplier' ) ;
#113 = CIRCLE ( 'NONE', #6, 77.81000000000000200 ) ;
#114 = PERSON_AND_ORGANIZATION ( #9, #110 ) ;
#115 = ORIENTED_EDGE ( 'NONE', *, *, #203, .F. ) ;
#116 = CC_DESIGN_DATE_AND_TIME_ASSIGNMENT ( #66, #61, ( #39 ) ) ;
#117 = CARTESIAN_POINT ( 'NONE',  ( -2.131628207280299300E-014, -8.897124612084848400, -1.511324869727809200 ) ) ;
#118 = DATE_AND_TIME ( #195, #79 ) ;
#119 = AXIS2_PLACEMENT_3D ( 'NONE', #73, #233, #40 ) ;
#120 = CARTESIAN_POINT ( 'NONE',  ( -26.04289053720684800, -8.897124612084841300, 2.885768728962198700 ) ) ;
#121 = APPROVAL_DATE_TIME ( #163, #96 ) ;
#122 = CARTESIAN_POINT ( 'NONE',  ( 9.992007221626412800E-016, 4.884981308350691100E-015, 4.262490864747840100 ) ) ;
#123 = CARTESIAN_POINT ( 'NONE',  ( -16.34164086564381400, -25.69327870474623400, 5.734302434638277800 ) ) ;
#124 = CARTESIAN_POINT ( 'NONE',  ( 9.992007221626412800E-016, 4.884981308350691100E-015, 7.200000000000001100 ) ) ;
#125 = VERTEX_POINT ( 'NONE', #142 ) ;
#126 = APPROVAL_ROLE ( '' ) ;
#127 = DIRECTION ( 'NONE',  ( 0.0000000000000000000, -1.000000000000000000, -3.567096210722132400E-016 ) ) ;
#128 = APPROVAL_STATUS ( 'not_yet_approved' ) ;
#129 = PERSON_AND_ORGANIZATION ( #9, #110 ) ;
#130 = AXIS2_PLACEMENT_3D ( 'NONE', #216, #90, #56 ) ;
#131 = LOCAL_TIME ( 9, 3, 53.00000000000000000, #214 ) ;
#132 = PERSON_AND_ORGANIZATION ( #9, #110 ) ;
#133 =( BOUNDED_SURFACE ( )  B_SPLINE_SURFACE ( 3, 3, ( 
 ( #104, #123, #212, #91 ),
 ( #120, #160, #141, #41 ),
 ( #15, #213, #138, #180 ),
 ( #17, #183, #38, #140 ) ),
 .UNSPECIFIED., .F., .F., .F. ) 
 B_SPLINE_SURFACE_WITH_KNOTS ( ( 4, 4 ),
 ( 4, 4 ),
 ( 0.0000000000000000000, 1.000000000000000000 ),
 ( 0.0000000000000000000, 1.000000000000000000 ),
 .UNSPECIFIED. ) 
 GEOMETRIC_REPRESENTATION_ITEM ( )  RATIONAL_B_SPLINE_SURFACE ( (
 ( 1.000000000000000000, 0.9906960878400532500, 0.9906960878400532500, 1.000000000000000000),
 ( 0.9626060787417165500, 0.9536500763404728300, 0.9536500763404728300, 0.9626060787417165500),
 ( 0.9626060787417165500, 0.9536500763404728300, 0.9536500763404728300, 0.9626060787417165500),
 ( 1.000000000000000000, 0.9906960878400532500, 0.9906960878400532500, 1.000000000000000000) ) ) 
 REPRESENTATION_ITEM ( '' )  SURFACE ( )  );
#134 = CYLINDRICAL_SURFACE ( 'NONE', #30, 25.39999999999999900 ) ;
#135 = ORIENTED_EDGE ( 'NONE', *, *, #211, .T. ) ;
#136 = CARTESIAN_POINT ( 'NONE',  ( 8.228236525218301600, -25.69327870474624100, 4.364431519660526800 ) ) ;
#137 = APPROVAL_PERSON_ORGANIZATION ( #153, #219, #97 ) ;
#138 = CARTESIAN_POINT ( 'NONE',  ( -8.886507872786344500, 8.897124612084850200, -1.511324869727767500 ) ) ;
#139 = DIRECTION ( 'NONE',  ( 1.000000000000000000, 0.0000000000000000000, 0.0000000000000000000 ) ) ;
#140 = CARTESIAN_POINT ( 'NONE',  ( -4.510281037539698400E-014, 25.69327870474623400, 4.364431519660568500 ) ) ;
#141 = CARTESIAN_POINT ( 'NONE',  ( -8.886507872786342700, -8.897124612084837700, -1.511324869727785200 ) ) ;
#142 = CARTESIAN_POINT ( 'NONE',  ( -2.131628207280299900E-014, 25.39999999999998400, 4.262490864747838300 ) ) ;
#143 = PRODUCT_RELATED_PRODUCT_CATEGORY ( 'detail', '', ( #188 ) ) ;
#144 = ORIENTED_EDGE ( 'NONE', *, *, #191, .T. ) ;
#145 = APPROVAL_STATUS ( 'not_yet_approved' ) ;
#146 = COORDINATED_UNIVERSAL_TIME_OFFSET ( 2, 0, .AHEAD. ) ;
#147 = COORDINATED_UNIVERSAL_TIME_OFFSET ( 2, 0, .AHEAD. ) ;
#148 = CIRCLE ( 'NONE', #63, 25.39999999999999900 ) ;
#149 = ORIENTED_EDGE ( 'NONE', *, *, #203, .T. ) ;
#150 = CARTESIAN_POINT ( 'NONE',  ( 17.64899681258698300, -8.897124612084848400, -0.03186221289472195000 ) ) ;
#151 = PRODUCT_DEFINITION_FORMATION_WITH_SPECIFIED_SOURCE ( 'ANY', '', #188, .NOT_KNOWN. ) ;
#152 = DESIGN_CONTEXT ( 'detailed design', #185, 'design' ) ;
#153 = PERSON_AND_ORGANIZATION ( #9, #110 ) ;
#154 = CARTESIAN_POINT ( 'NONE',  ( 0.0000000000000000000, 52.02000000000000300, 7.200000000000001100 ) ) ;
#155 = EDGE_LOOP ( 'NONE', ( #229, #10, #225, #149, #226 ) ) ;
#156 = CARTESIAN_POINT ( 'NONE',  ( 8.886507872786292900, -8.897124612084848400, -1.511324869727809700 ) ) ;
#157 = CC_DESIGN_PERSON_AND_ORGANIZATION_ASSIGNMENT ( #165, #199, ( #188 ) ) ;
#158 = CARTESIAN_POINT ( 'NONE',  ( 9.992007221626412800E-016, 4.884981308350691100E-015, 4.262490864747840100 ) ) ;
#159 = DATE_AND_TIME ( #18, #99 ) ;
#160 = CARTESIAN_POINT ( 'NONE',  ( -17.64899681258702600, -8.897124612084837700, -0.03186221289469072500 ) ) ;
#161 = DIRECTION ( 'NONE',  ( -0.0000000000000000000, -0.0000000000000000000, -1.000000000000000000 ) ) ;
#162 = DIRECTION ( 'NONE',  ( 0.0000000000000000000, 0.0000000000000000000, 1.000000000000000000 ) ) ;
#163 = DATE_AND_TIME ( #170, #22 ) ;
#164 = CARTESIAN_POINT ( 'NONE',  ( -2.131628207280299900E-014, -2.131628207280299900E-014, 77.81000000000000200 ) ) ;
#165 = PERSON_AND_ORGANIZATION ( #9, #110 ) ;
#166 = EDGE_CURVE ( 'NONE', #175, #1, #148, .T. ) ;
#167 =( NAMED_UNIT ( * ) SI_UNIT ( $, .STERADIAN. ) SOLID_ANGLE_UNIT ( ) );
#168 = APPLICATION_CONTEXT ( 'configuration controlled 3d designs of mechanical parts and assemblies' ) ;
#169 = CC_DESIGN_PERSON_AND_ORGANIZATION_ASSIGNMENT ( #132, #200, ( #151 ) ) ;
#170 = CALENDAR_DATE ( 2018, 21, 12 ) ;
#171 = VECTOR ( 'NONE', #217, 1000.000000000000000 ) ;
#172 = CARTESIAN_POINT ( 'NONE',  ( 26.04289053720681900, 8.897124612084843100, 2.885768728962192500 ) ) ;
#173 = SECURITY_CLASSIFICATION ( '', '', #98 ) ;
#174 = CIRCLE ( 'NONE', #206, 25.39999999999999900 ) ;
#175 = VERTEX_POINT ( 'NONE', #74 ) ;
#176 = EDGE_CURVE ( 'NONE', #1, #125, #234, .T. ) ;
#177 = ADVANCED_FACE ( 'NONE', ( #205 ), #134, .T. ) ;
#178 = CARTESIAN_POINT ( 'NONE',  ( -2.131628207280299900E-014, 25.69327870474623400, 4.364431519660552500 ) ) ;
#179 = CALENDAR_DATE ( 2018, 21, 12 ) ;
#180 = CARTESIAN_POINT ( 'NONE',  ( -4.857225732735060500E-014, 8.897124612084848400, -1.511324869727770400 ) ) ;
#181 =( BOUNDED_SURFACE ( )  B_SPLINE_SURFACE ( 3, 3, ( 
 ( #13, #136, #37, #230 ),
 ( #117, #156, #150, #31 ),
 ( #52, #55, #190, #172 ),
 ( #178, #68, #72, #208 ) ),
 .UNSPECIFIED., .F., .F., .F. ) 
 B_SPLINE_SURFACE_WITH_KNOTS ( ( 4, 4 ),
 ( 4, 4 ),
 ( 0.0000000000000000000, 1.000000000000000000 ),
 ( 0.0000000000000000000, 1.000000000000000000 ),
 .UNSPECIFIED. ) 
 GEOMETRIC_REPRESENTATION_ITEM ( )  RATIONAL_B_SPLINE_SURFACE ( (
 ( 1.000000000000000000, 0.9906960878400532500, 0.9906960878400532500, 1.000000000000000000),
 ( 0.9626060787417165500, 0.9536500763404728300, 0.9536500763404728300, 0.9626060787417165500),
 ( 0.9626060787417165500, 0.9536500763404728300, 0.9536500763404728300, 0.9626060787417165500),
 ( 1.000000000000000000, 0.9906960878400532500, 0.9906960878400532500, 1.000000000000000000) ) ) 
 REPRESENTATION_ITEM ( '' )  SURFACE ( )  );
#182 = DIRECTION ( 'NONE',  ( 1.000000000000000000, 0.0000000000000000000, 0.0000000000000000000 ) ) ;
#183 = CARTESIAN_POINT ( 'NONE',  ( -16.34164086564381400, 25.69327870474623400, 5.734302434638304500 ) ) ;
#184 = DIRECTION ( 'NONE',  ( 1.000000000000000000, 0.0000000000000000000, 0.0000000000000000000 ) ) ;
#185 = APPLICATION_CONTEXT ( 'configuration controlled 3d designs of mechanical parts and assemblies' ) ;
#186 = FACE_OUTER_BOUND ( 'NONE', #215, .T. ) ;
#187 = APPROVAL_PERSON_ORGANIZATION ( #57, #96, #126 ) ;
#188 = PRODUCT ( '110-0507E BK7 pl-cx 50.8 F150', '110-0507E BK7 pl-cx 50.8 F150', '', ( #108 ) ) ;
#189 = FACE_OUTER_BOUND ( 'NONE', #58, .T. ) ;
#190 = CARTESIAN_POINT ( 'NONE',  ( 17.64899681258698300, 8.897124612084844800, -0.03186221289470199400 ) ) ;
#191 = EDGE_CURVE ( 'NONE', #1, #103, #221, .T. ) ;
#192 = ORIENTED_EDGE ( 'NONE', *, *, #86, .F. ) ;
#193 = DIRECTION ( 'NONE',  ( 1.000000000000000000, 0.0000000000000000000, 0.0000000000000000000 ) ) ;
#194 = DIRECTION ( 'NONE',  ( -0.0000000000000000000, -0.0000000000000000000, -1.000000000000000000 ) ) ;
#195 = CALENDAR_DATE ( 2018, 21, 12 ) ;
#196 = ORIENTED_EDGE ( 'NONE', *, *, #176, .T. ) ;
#197 = CARTESIAN_POINT ( 'NONE',  ( 9.992007221626412800E-016, 4.884981308350691100E-015, 4.262490864747840100 ) ) ;
#198 = CIRCLE ( 'NONE', #130, 25.39999999999999900 ) ;
#199 = PERSON_AND_ORGANIZATION_ROLE ( 'design_owner' ) ;
#200 = PERSON_AND_ORGANIZATION_ROLE ( 'creator' ) ;
#201 = CARTESIAN_POINT ( 'NONE',  ( 9.992007221626412800E-016, 4.884981308350691100E-015, 4.262490864747840100 ) ) ;
#202 = COORDINATED_UNIVERSAL_TIME_OFFSET ( 2, 0, .AHEAD. ) ;
#203 = EDGE_CURVE ( 'NONE', #24, #53, #43, .T. ) ;
#204 = UNCERTAINTY_MEASURE_WITH_UNIT (LENGTH_MEASURE( 1.000000000000000100E-005 ), #45, 'distance_accuracy_value', 'NONE');
#205 = FACE_OUTER_BOUND ( 'NONE', #95, .T. ) ;
#206 = AXIS2_PLACEMENT_3D ( 'NONE', #122, #161, #139 ) ;
#207 = CYLINDRICAL_SURFACE ( 'NONE', #119, 25.39999999999999900 ) ;
#208 = CARTESIAN_POINT ( 'NONE',  ( 24.11375381737205700, 25.69327870474623400, 8.435808788603484500 ) ) ;
#209 = SHAPE_DEFINITION_REPRESENTATION ( #59, #32 ) ;
#210 = ORIENTED_EDGE ( 'NONE', *, *, #224, .T. ) ;
#211 = EDGE_CURVE ( 'NONE', #175, #125, #113, .T. ) ;
#212 = CARTESIAN_POINT ( 'NONE',  ( -8.228236525218353100, -25.69327870474623100, 4.364431519660542800 ) ) ;
#213 = CARTESIAN_POINT ( 'NONE',  ( -17.64899681258702900, 8.897124612084850200, -0.03186221289467336400 ) ) ;
#214 = COORDINATED_UNIVERSAL_TIME_OFFSET ( 2, 0, .AHEAD. ) ;
#215 = EDGE_LOOP ( 'NONE', ( #71, #192 ) ) ;
#216 = CARTESIAN_POINT ( 'NONE',  ( 9.992007221626412800E-016, 4.884981308350691100E-015, 7.200000000000001100 ) ) ;
#217 = DIRECTION ( 'NONE',  ( 0.0000000000000000000, 0.0000000000000000000, 1.000000000000000000 ) ) ;
#218 = CARTESIAN_POINT ( 'NONE',  ( 0.0000000000000000000, 0.0000000000000000000, 0.0000000000000000000 ) ) ;
#219 = APPROVAL ( #80, 'UNSPECIFIED' ) ;
#220 = APPROVAL_PERSON_ORGANIZATION ( #33, #223, #26 ) ;
#221 = LINE ( 'NONE', #107, #89 ) ;
#222 = DIRECTION ( 'NONE',  ( 1.000000000000000000, 0.0000000000000000000, 0.0000000000000000000 ) ) ;
#223 = APPROVAL ( #128, 'UNSPECIFIED' ) ;
#224 = EDGE_CURVE ( 'NONE', #125, #24, #28, .T. ) ;
#225 = ORIENTED_EDGE ( 'NONE', *, *, #102, .F. ) ;
#226 = ORIENTED_EDGE ( 'NONE', *, *, #76, .T. ) ;
#227 = CLOSED_SHELL ( 'NONE', ( #36, #177, #92, #87, #11 ) ) ;
#228 = CARTESIAN_POINT ( 'NONE',  ( -25.39999999999999900, 7.995584178184967200E-015, 4.262490864747840100 ) ) ;
#229 = ORIENTED_EDGE ( 'NONE', *, *, #191, .F. ) ;
#230 = CARTESIAN_POINT ( 'NONE',  ( 24.11375381737206100, -25.69327870474624500, 8.435808788603456100 ) ) ;
#231 = PLANE ( 'NONE',  #12 ) ;
#232 = CC_DESIGN_SECURITY_CLASSIFICATION ( #173, ( #151 ) ) ;
#233 = DIRECTION ( 'NONE',  ( 0.0000000000000000000, 0.0000000000000000000, 1.000000000000000000 ) ) ;
#234 = CIRCLE ( 'NONE', #60, 25.39999999999999900 ) ;
#235 = DIRECTION ( 'NONE',  ( 0.0000000000000000000, 0.0000000000000000000, 1.000000000000000000 ) ) ;
ENDSEC;
END-ISO-10303-21;
