ISO-10303-21;
HEADER;
FILE_DESCRIPTION (( 'STEP AP203' ),
    '1' );
FILE_NAME ('110-0505E BK7 pl-cx 50.8 F100.STEP',
    '2018-12-21T07:04:04',
    ( '' ),
    ( '' ),
    'SwSTEP 2.0',
    'SolidWorks 2017',
    '' );
FILE_SCHEMA (( 'CONFIG_CONTROL_DESIGN' ));
ENDSEC;

DATA;
#1 =( BOUNDED_SURFACE ( )  B_SPLINE_SURFACE ( 3, 3, ( 
 ( #146, #218, #174, #58 ),
 ( #201, #7, #125, #198 ),
 ( #173, #180, #71, #37 ),
 ( #124, #108, #8, #26 ) ),
 .UNSPECIFIED., .F., .F., .F. ) 
 B_SPLINE_SURFACE_WITH_KNOTS ( ( 4, 4 ),
 ( 4, 4 ),
 ( 0.0000000000000000000, 1.000000000000000000 ),
 ( 0.0000000000000000000, 1.000000000000000000 ),
 .UNSPECIFIED. ) 
 GEOMETRIC_REPRESENTATION_ITEM ( )  RATIONAL_B_SPLINE_SURFACE ( (
 ( 1.000000000000000000, 0.9780367744982881900, 0.9780367744982881900, 1.000000000000000000),
 ( 0.9125836931109969600, 0.8925404116700151900, 0.8925404116700151900, 0.9125836931109969600),
 ( 0.9125836931109969600, 0.8925404116700151900, 0.8925404116700151900, 0.9125836931109969600),
 ( 1.000000000000000000, 0.9780367744982881900, 0.9780367744982881900, 1.000000000000000000) ) ) 
 REPRESENTATION_ITEM ( '' )  SURFACE ( )  );
#2 = APPROVAL ( #136, 'UNSPECIFIED' ) ;
#3 = CC_DESIGN_PERSON_AND_ORGANIZATION_ASSIGNMENT ( #51, #232, ( #61 ) ) ;
#4 = CIRCLE ( 'NONE', #235, 25.39999999999999900 ) ;
#5 = EDGE_CURVE ( 'NONE', #42, #149, #172, .T. ) ;
#6 = EDGE_LOOP ( 'NONE', ( #10, #89, #138 ) ) ;
#7 = CARTESIAN_POINT ( 'NONE',  ( -18.55265425827941100, -9.378952491840268000, -0.08331503819355383400 ) ) ;
#8 = CARTESIAN_POINT ( 'NONE',  ( -7.820406621970531300, 25.67723730754859800, 6.801425757498882300 ) ) ;
#9 = LOCAL_TIME ( 9, 4, 4.000000000000000000, #88 ) ;
#10 = ORIENTED_EDGE ( 'NONE', *, *, #121, .F. ) ;
#11 = CARTESIAN_POINT ( 'NONE',  ( 9.992007221626412800E-016, 4.884981308350691100E-015, 6.644598951474179700 ) ) ;
#12 = CARTESIAN_POINT ( 'NONE',  ( 1.421085471520200100E-014, 2.486899575160350000E-014, 51.86999999999999700 ) ) ;
#13 = ORIENTED_EDGE ( 'NONE', *, *, #184, .F. ) ;
#14 = APPROVAL ( #69, 'UNSPECIFIED' ) ;
#15 = CARTESIAN_POINT ( 'NONE',  ( 0.0000000000000000000, 0.0000000000000000000, 0.0000000000000000000 ) ) ;
#16 = EDGE_LOOP ( 'NONE', ( #64, #144, #160, #105, #52 ) ) ;
#17 = DIRECTION ( 'NONE',  ( 1.000000000000000000, 8.881784197001252300E-016, 0.0000000000000000000 ) ) ;
#18 = CALENDAR_DATE ( 2018, 21, 12 ) ;
#19 = PERSON_AND_ORGANIZATION ( #150, #190 ) ;
#20 = APPROVAL_ROLE ( '' ) ;
#21 = PERSON_AND_ORGANIZATION_ROLE ( 'creator' ) ;
#22 = DATE_AND_TIME ( #140, #9 ) ;
#23 = ADVANCED_FACE ( 'NONE', ( #133 ), #1, .T. ) ;
#24 = DATE_AND_TIME ( #18, #226 ) ;
#25 = AXIS2_PLACEMENT_3D ( 'NONE', #93, #97, #225 ) ;
#26 = CARTESIAN_POINT ( 'NONE',  ( -1.040834085586084300E-014, 25.67723730754859400, 6.801425757498877900 ) ) ;
#27 = CARTESIAN_POINT ( 'NONE',  ( 9.992007221626412800E-016, 4.884981308350691100E-015, 6.644598951474179700 ) ) ;
#28 = ORIENTED_EDGE ( 'NONE', *, *, #167, .F. ) ;
#29 = APPLICATION_CONTEXT ( 'configuration controlled 3d designs of mechanical parts and assemblies' ) ;
#30 =( GEOMETRIC_REPRESENTATION_CONTEXT ( 3 ) GLOBAL_UNCERTAINTY_ASSIGNED_CONTEXT ( ( #145 ) ) GLOBAL_UNIT_ASSIGNED_CONTEXT ( ( #77, #134, #100 ) ) REPRESENTATION_CONTEXT ( 'NONE', 'WORKASPACE' ) );
#31 = FACE_OUTER_BOUND ( 'NONE', #16, .T. ) ;
#32 = SECURITY_CLASSIFICATION_LEVEL ( 'unclassified' ) ;
#33 = CYLINDRICAL_SURFACE ( 'NONE', #38, 25.39999999999999900 ) ;
#34 = APPROVAL_ROLE ( '' ) ;
#35 = AXIS2_PLACEMENT_3D ( 'NONE', #154, #76, #206 ) ;
#36 = CIRCLE ( 'NONE', #171, 51.86999999999999700 ) ;
#37 = CARTESIAN_POINT ( 'NONE',  ( -2.081668171172168800E-014, 9.378952491840292900, -2.484311232252693500 ) ) ;
#38 = AXIS2_PLACEMENT_3D ( 'NONE', #11, #62, #127 ) ;
#39 = DIRECTION ( 'NONE',  ( 1.000000000000000000, 0.0000000000000000000, 0.0000000000000000000 ) ) ;
#40 = APPROVAL_PERSON_ORGANIZATION ( #79, #2, #216 ) ;
#41 = FACE_OUTER_BOUND ( 'NONE', #96, .T. ) ;
#42 = VERTEX_POINT ( 'NONE', #148 ) ;
#43 = CARTESIAN_POINT ( 'NONE',  ( 26.76191574876696300, -9.378952491840276900, 4.560476487408050300 ) ) ;
#44 = DIRECTION ( 'NONE',  ( -0.0000000000000000000, -0.0000000000000000000, -1.000000000000000000 ) ) ;
#45 = VERTEX_POINT ( 'NONE', #87 ) ;
#46 = CARTESIAN_POINT ( 'NONE',  ( -1.696153144770354500E-014, -9.378952491840273400, -2.484311232252688100 ) ) ;
#47 = PERSON_AND_ORGANIZATION_ROLE ( 'design_supplier' ) ;
#48 = APPROVAL_DATE_TIME ( #233, #14 ) ;
#49 = EDGE_CURVE ( 'NONE', #90, #45, #82, .T. ) ;
#50 = MECHANICAL_CONTEXT ( 'NONE', #29, 'mechanical' ) ;
#51 = PERSON_AND_ORGANIZATION ( #150, #190 ) ;
#52 = ORIENTED_EDGE ( 'NONE', *, *, #214, .T. ) ;
#53 = CARTESIAN_POINT ( 'NONE',  ( 0.0000000000000000000, 52.02000000000000300, 10.40000000000000200 ) ) ;
#54 = APPROVAL_PERSON_ORGANIZATION ( #60, #70, #34 ) ;
#55 = ORIENTED_EDGE ( 'NONE', *, *, #151, .T. ) ;
#56 = EDGE_LOOP ( 'NONE', ( #28, #109, #55, #191, #13 ) ) ;
#57 = AXIS2_PLACEMENT_3D ( 'NONE', #53, #223, #75 ) ;
#58 = CARTESIAN_POINT ( 'NONE',  ( -2.428612866367529900E-014, -25.67723730754857300, 6.801425757498893000 ) ) ;
#59 = DIRECTION ( 'NONE',  ( 1.000000000000000000, 0.0000000000000000000, 0.0000000000000000000 ) ) ;
#60 = PERSON_AND_ORGANIZATION ( #150, #190 ) ;
#61 = PRODUCT_DEFINITION_FORMATION_WITH_SPECIFIED_SOURCE ( 'ANY', '', #165, .NOT_KNOWN. ) ;
#62 = DIRECTION ( 'NONE',  ( 0.0000000000000000000, 0.0000000000000000000, 1.000000000000000000 ) ) ;
#63 = SHAPE_DEFINITION_REPRESENTATION ( #85, #111 ) ;
#64 = ORIENTED_EDGE ( 'NONE', *, *, #49, .F. ) ;
#65 = EDGE_CURVE ( 'NONE', #42, #182, #106, .T. ) ;
#66 = CARTESIAN_POINT ( 'NONE',  ( 7.820406621970525900, 25.67723730754859100, 6.801425757498872600 ) ) ;
#67 = APPLICATION_PROTOCOL_DEFINITION ( 'international standard', 'config_control_design', 1994, #29 ) ;
#68 = APPLICATION_PROTOCOL_DEFINITION ( 'international standard', 'config_control_design', 1994, #215 ) ;
#69 = APPROVAL_STATUS ( 'not_yet_approved' ) ;
#70 = APPROVAL ( #192, 'UNSPECIFIED' ) ;
#71 = CARTESIAN_POINT ( 'NONE',  ( -9.431689877877236200, 9.378952491840296400, -2.484311232252686800 ) ) ;
#72 = ORIENTED_EDGE ( 'NONE', *, *, #5, .T. ) ;
#73 = CARTESIAN_POINT ( 'NONE',  ( -25.39999999999999900, 7.995584178184967200E-015, 6.644598951474179700 ) ) ;
#74 = CALENDAR_DATE ( 2018, 21, 12 ) ;
#75 = DIRECTION ( 'NONE',  ( 1.000000000000000000, 0.0000000000000000000, -0.0000000000000000000 ) ) ;
#76 = DIRECTION ( 'NONE',  ( -0.0000000000000000000, -0.0000000000000000000, -1.000000000000000000 ) ) ;
#77 =( LENGTH_UNIT ( ) NAMED_UNIT ( * ) SI_UNIT ( .MILLI., .METRE. ) );
#78 = DIRECTION ( 'NONE',  ( 0.0000000000000000000, 0.0000000000000000000, 1.000000000000000000 ) ) ;
#79 = PERSON_AND_ORGANIZATION ( #150, #190 ) ;
#80 = CARTESIAN_POINT ( 'NONE',  ( 22.18998565985282000, 25.67723730754859100, 12.64270184339274500 ) ) ;
#81 = CC_DESIGN_SECURITY_CLASSIFICATION ( #120, ( #61 ) ) ;
#82 = LINE ( 'NONE', #91, #219 ) ;
#83 =( BOUNDED_SURFACE ( )  B_SPLINE_SURFACE ( 3, 3, ( 
 ( #210, #99, #98, #132 ),
 ( #46, #227, #117, #43 ),
 ( #115, #188, #130, #168 ),
 ( #231, #66, #155, #80 ) ),
 .UNSPECIFIED., .F., .F., .F. ) 
 B_SPLINE_SURFACE_WITH_KNOTS ( ( 4, 4 ),
 ( 4, 4 ),
 ( 0.0000000000000000000, 1.000000000000000000 ),
 ( 0.0000000000000000000, 1.000000000000000000 ),
 .UNSPECIFIED. ) 
 GEOMETRIC_REPRESENTATION_ITEM ( )  RATIONAL_B_SPLINE_SURFACE ( (
 ( 1.000000000000000000, 0.9780367744982880800, 0.9780367744982880800, 1.000000000000000000),
 ( 0.9125836931109969600, 0.8925404116700150800, 0.8925404116700150800, 0.9125836931109969600),
 ( 0.9125836931109969600, 0.8925404116700150800, 0.8925404116700150800, 0.9125836931109969600),
 ( 1.000000000000000000, 0.9780367744982880800, 0.9780367744982880800, 1.000000000000000000) ) ) 
 REPRESENTATION_ITEM ( '' )  SURFACE ( )  );
#84 = DATE_TIME_ROLE ( 'classification_date' ) ;
#85 = PRODUCT_DEFINITION_SHAPE ( 'NONE', 'NONE',  #118 ) ;
#86 = CARTESIAN_POINT ( 'NONE',  ( 9.992007221626412800E-016, 4.884981308350691100E-015, 6.644598951474179700 ) ) ;
#87 = CARTESIAN_POINT ( 'NONE',  ( -25.39999999999999900, 7.995584178184967200E-015, 10.40000000000000200 ) ) ;
#88 = COORDINATED_UNIVERSAL_TIME_OFFSET ( 2, 0, .AHEAD. ) ;
#89 = ORIENTED_EDGE ( 'NONE', *, *, #135, .T. ) ;
#90 = VERTEX_POINT ( 'NONE', #73 ) ;
#91 = CARTESIAN_POINT ( 'NONE',  ( -25.39999999999999900, 7.995584178184967200E-015, 6.644598951474179700 ) ) ;
#92 = COORDINATED_UNIVERSAL_TIME_OFFSET ( 2, 0, .AHEAD. ) ;
#93 = CARTESIAN_POINT ( 'NONE',  ( 9.992007221626412800E-016, 4.884981308350691100E-015, 6.644598951474179700 ) ) ;
#94 = CC_DESIGN_PERSON_AND_ORGANIZATION_ASSIGNMENT ( #159, #47, ( #61 ) ) ;
#95 = CALENDAR_DATE ( 2018, 21, 12 ) ;
#96 = EDGE_LOOP ( 'NONE', ( #185, #234 ) ) ;
#97 = DIRECTION ( 'NONE',  ( 0.0000000000000000000, 0.0000000000000000000, 1.000000000000000000 ) ) ;
#98 = CARTESIAN_POINT ( 'NONE',  ( 15.38317121271091300, -25.67723730754857300, 8.792242544147942600 ) ) ;
#99 = CARTESIAN_POINT ( 'NONE',  ( 7.820406621970510000, -25.67723730754857000, 6.801425757498884100 ) ) ;
#100 =( NAMED_UNIT ( * ) SI_UNIT ( $, .STERADIAN. ) SOLID_ANGLE_UNIT ( ) );
#101 = COORDINATED_UNIVERSAL_TIME_OFFSET ( 2, 0, .AHEAD. ) ;
#102 = PERSON_AND_ORGANIZATION_ROLE ( 'design_owner' ) ;
#103 = ORIENTED_EDGE ( 'NONE', *, *, #121, .T. ) ;
#104 = AXIS2_PLACEMENT_3D ( 'NONE', #86, #123, #221 ) ;
#105 = ORIENTED_EDGE ( 'NONE', *, *, #65, .T. ) ;
#106 = LINE ( 'NONE', #178, #129 ) ;
#107 = ADVANCED_FACE ( 'NONE', ( #41 ), #199, .T. ) ;
#108 = CARTESIAN_POINT ( 'NONE',  ( -15.38317121271092000, 25.67723730754860200, 8.792242544147946100 ) ) ;
#109 = ORIENTED_EDGE ( 'NONE', *, *, #49, .T. ) ;
#110 = DIRECTION ( 'NONE',  ( 1.000000000000000000, -2.801096586449980200E-016, -5.251699512849379800E-016 ) ) ;
#111 = ADVANCED_BREP_SHAPE_REPRESENTATION ( '110-0505E BK7 pl-cx 50.8 F100', ( #205, #175 ), #30 ) ;
#112 = LOCAL_TIME ( 9, 4, 4.000000000000000000, #92 ) ;
#113 = CARTESIAN_POINT ( 'NONE',  ( 25.39999999999999900, 4.884981308350691100E-015, 10.40000000000000200 ) ) ;
#114 = CARTESIAN_POINT ( 'NONE',  ( -2.425381620711139300E-015, 25.40000000000001300, 6.644598951474182300 ) ) ;
#115 = CARTESIAN_POINT ( 'NONE',  ( -1.170726108582947000E-014, 9.378952491840296400, -2.484311232252695700 ) ) ;
#116 = CYLINDRICAL_SURFACE ( 'NONE', #25, 25.39999999999999900 ) ;
#117 = CARTESIAN_POINT ( 'NONE',  ( 18.55265425827939300, -9.378952491840276900, -0.08331503819357551100 ) ) ;
#118 = PRODUCT_DEFINITION ( 'UNKNOWN', '', #61, #211 ) ;
#119 = FACE_OUTER_BOUND ( 'NONE', #197, .T. ) ;
#120 = SECURITY_CLASSIFICATION ( '', '', #32 ) ;
#121 = EDGE_CURVE ( 'NONE', #149, #194, #36, .T. ) ;
#122 = CIRCLE ( 'NONE', #228, 25.39999999999999900 ) ;
#123 = DIRECTION ( 'NONE',  ( -0.0000000000000000000, -0.0000000000000000000, -1.000000000000000000 ) ) ;
#124 = CARTESIAN_POINT ( 'NONE',  ( -22.18998565985280200, 25.67723730754860200, 12.64270184339276400 ) ) ;
#125 = CARTESIAN_POINT ( 'NONE',  ( -9.431689877877241600, -9.378952491840271600, -2.484311232252679700 ) ) ;
#126 = CARTESIAN_POINT ( 'NONE',  ( -1.665495227987703700E-014, -25.39999999999997700, 6.644598951474178800 ) ) ;
#127 = DIRECTION ( 'NONE',  ( 1.000000000000000000, 0.0000000000000000000, 0.0000000000000000000 ) ) ;
#128 = CARTESIAN_POINT ( 'NONE',  ( 9.992007221626412800E-016, 4.884981308350691100E-015, 6.644598951474179700 ) ) ;
#129 = VECTOR ( 'NONE', #195, 1000.000000000000000 ) ;
#130 = CARTESIAN_POINT ( 'NONE',  ( 18.55265425827940000, 9.378952491840294700, -0.08331503819358246400 ) ) ;
#131 = CC_DESIGN_DATE_AND_TIME_ASSIGNMENT ( #147, #84, ( #120 ) ) ;
#132 = CARTESIAN_POINT ( 'NONE',  ( 22.18998565985280500, -25.67723730754857700, 12.64270184339275900 ) ) ;
#133 = FACE_OUTER_BOUND ( 'NONE', #6, .T. ) ;
#134 =( NAMED_UNIT ( * ) PLANE_ANGLE_UNIT ( ) SI_UNIT ( $, .RADIAN. ) );
#135 = EDGE_CURVE ( 'NONE', #149, #90, #122, .T. ) ;
#136 = APPROVAL_STATUS ( 'not_yet_approved' ) ;
#137 = PERSON_AND_ORGANIZATION ( #150, #190 ) ;
#138 = ORIENTED_EDGE ( 'NONE', *, *, #167, .T. ) ;
#139 = CC_DESIGN_PERSON_AND_ORGANIZATION_ASSIGNMENT ( #19, #102, ( #165 ) ) ;
#140 = CALENDAR_DATE ( 2018, 21, 12 ) ;
#141 = CALENDAR_DATE ( 2018, 21, 12 ) ;
#142 = CC_DESIGN_APPROVAL ( #70, ( #61 ) ) ;
#143 = LOCAL_TIME ( 9, 4, 4.000000000000000000, #101 ) ;
#144 = ORIENTED_EDGE ( 'NONE', *, *, #135, .F. ) ;
#145 = UNCERTAINTY_MEASURE_WITH_UNIT (LENGTH_MEASURE( 1.000000000000000100E-005 ), #77, 'distance_accuracy_value', 'NONE');
#146 = CARTESIAN_POINT ( 'NONE',  ( -22.18998565985281600, -25.67723730754856200, 12.64270184339277800 ) ) ;
#147 = DATE_AND_TIME ( #74, #112 ) ;
#148 = CARTESIAN_POINT ( 'NONE',  ( 25.39999999999999900, 4.884981308350691100E-015, 6.644598951474179700 ) ) ;
#149 = VERTEX_POINT ( 'NONE', #126 ) ;
#150 = PERSON ( 'UNSPECIFIED', 'UNSPECIFIED', 'UNSPECIFIED', ('UNSPECIFIED'), ('UNSPECIFIED'), ('UNSPECIFIED') ) ;
#151 = EDGE_CURVE ( 'NONE', #45, #182, #156, .T. ) ;
#152 = DIRECTION ( 'NONE',  ( -0.0000000000000000000, -0.0000000000000000000, -1.000000000000000000 ) ) ;
#153 = APPROVAL_PERSON_ORGANIZATION ( #196, #14, #20 ) ;
#154 = CARTESIAN_POINT ( 'NONE',  ( 9.992007221626412800E-016, 4.884981308350691100E-015, 10.40000000000000200 ) ) ;
#155 = CARTESIAN_POINT ( 'NONE',  ( 15.38317121271092500, 25.67723730754858700, 8.792242544147928400 ) ) ;
#156 = CIRCLE ( 'NONE', #207, 25.39999999999999900 ) ;
#157 = CC_DESIGN_APPROVAL ( #2, ( #120 ) ) ;
#158 = ADVANCED_FACE ( 'NONE', ( #31 ), #33, .T. ) ;
#159 = PERSON_AND_ORGANIZATION ( #150, #190 ) ;
#160 = ORIENTED_EDGE ( 'NONE', *, *, #5, .F. ) ;
#161 = ADVANCED_FACE ( 'NONE', ( #224 ), #116, .T. ) ;
#162 = CC_DESIGN_PERSON_AND_ORGANIZATION_ASSIGNMENT ( #176, #213, ( #120 ) ) ;
#163 = DIRECTION ( 'NONE',  ( -0.0000000000000000000, -0.0000000000000000000, -1.000000000000000000 ) ) ;
#164 = DIRECTION ( 'NONE',  ( 1.000000000000000000, 0.0000000000000000000, 0.0000000000000000000 ) ) ;
#165 = PRODUCT ( '110-0505E BK7 pl-cx 50.8 F100', '110-0505E BK7 pl-cx 50.8 F100', '', ( #50 ) ) ;
#166 = PRODUCT_RELATED_PRODUCT_CATEGORY ( 'detail', '', ( #165 ) ) ;
#167 = EDGE_CURVE ( 'NONE', #90, #194, #230, .T. ) ;
#168 = CARTESIAN_POINT ( 'NONE',  ( 26.76191574876696300, 9.378952491840291100, 4.560476487408044100 ) ) ;
#169 = CC_DESIGN_APPROVAL ( #14, ( #118 ) ) ;
#170 = LOCAL_TIME ( 9, 4, 4.000000000000000000, #204 ) ;
#171 = AXIS2_PLACEMENT_3D ( 'NONE', #12, #110, #203 ) ;
#172 = CIRCLE ( 'NONE', #104, 25.39999999999999900 ) ;
#173 = CARTESIAN_POINT ( 'NONE',  ( -26.76191574876696300, 9.378952491840303600, 4.560476487408066300 ) ) ;
#174 = CARTESIAN_POINT ( 'NONE',  ( -7.820406621970544600, -25.67723730754857000, 6.801425757498898300 ) ) ;
#175 = AXIS2_PLACEMENT_3D ( 'NONE', #15, #78, #209 ) ;
#176 = PERSON_AND_ORGANIZATION ( #150, #190 ) ;
#177 = COORDINATED_UNIVERSAL_TIME_OFFSET ( 2, 0, .AHEAD. ) ;
#178 = CARTESIAN_POINT ( 'NONE',  ( 25.39999999999999900, 4.884981308350691100E-015, 6.644598951474179700 ) ) ;
#179 = ORIENTED_EDGE ( 'NONE', *, *, #184, .T. ) ;
#180 = CARTESIAN_POINT ( 'NONE',  ( -18.55265425827940700, 9.378952491840301800, -0.08331503819356077300 ) ) ;
#181 = APPROVAL_DATE_TIME ( #22, #70 ) ;
#182 = VERTEX_POINT ( 'NONE', #113 ) ;
#183 = DIRECTION ( 'NONE',  ( -0.0000000000000000000, -0.0000000000000000000, -1.000000000000000000 ) ) ;
#184 = EDGE_CURVE ( 'NONE', #194, #42, #4, .T. ) ;
#185 = ORIENTED_EDGE ( 'NONE', *, *, #214, .F. ) ;
#186 = DATE_AND_TIME ( #141, #170 ) ;
#187 = CLOSED_SHELL ( 'NONE', ( #200, #161, #23, #158, #107 ) ) ;
#188 = CARTESIAN_POINT ( 'NONE',  ( 9.431689877877213100, 9.378952491840294700, -2.484311232252700600 ) ) ;
#189 = DATE_TIME_ROLE ( 'creation_date' ) ;
#190 = ORGANIZATION ( 'UNSPECIFIED', 'UNSPECIFIED', '' ) ;
#191 = ORIENTED_EDGE ( 'NONE', *, *, #65, .F. ) ;
#192 = APPROVAL_STATUS ( 'not_yet_approved' ) ;
#193 = APPROVAL_DATE_TIME ( #186, #2 ) ;
#194 = VERTEX_POINT ( 'NONE', #114 ) ;
#195 = DIRECTION ( 'NONE',  ( 0.0000000000000000000, 0.0000000000000000000, 1.000000000000000000 ) ) ;
#196 = PERSON_AND_ORGANIZATION ( #150, #190 ) ;
#197 = EDGE_LOOP ( 'NONE', ( #72, #103, #179 ) ) ;
#198 = CARTESIAN_POINT ( 'NONE',  ( -2.775557561562891400E-014, -9.378952491840275100, -2.484311232252687200 ) ) ;
#199 = PLANE ( 'NONE',  #57 ) ;
#200 = ADVANCED_FACE ( 'NONE', ( #119 ), #83, .T. ) ;
#201 = CARTESIAN_POINT ( 'NONE',  ( -26.76191574876696300, -9.378952491840264500, 4.560476487408072500 ) ) ;
#202 = CARTESIAN_POINT ( 'NONE',  ( 9.992007221626412800E-016, 4.884981308350691100E-015, 10.40000000000000200 ) ) ;
#203 = DIRECTION ( 'NONE',  ( -2.801096586449978200E-016, -1.000000000000000000, 2.675494082863785900E-016 ) ) ;
#204 = COORDINATED_UNIVERSAL_TIME_OFFSET ( 2, 0, .AHEAD. ) ;
#205 = MANIFOLD_SOLID_BREP ( 'Imported1', #187 ) ;
#206 = DIRECTION ( 'NONE',  ( 1.000000000000000000, 0.0000000000000000000, 0.0000000000000000000 ) ) ;
#207 = AXIS2_PLACEMENT_3D ( 'NONE', #202, #183, #39 ) ;
#208 = CC_DESIGN_PERSON_AND_ORGANIZATION_ASSIGNMENT ( #137, #21, ( #118 ) ) ;
#209 = DIRECTION ( 'NONE',  ( 1.000000000000000000, 0.0000000000000000000, 0.0000000000000000000 ) ) ;
#210 = CARTESIAN_POINT ( 'NONE',  ( -1.665024840137796600E-014, -25.67723730754857000, 6.801425757498889400 ) ) ;
#211 = DESIGN_CONTEXT ( 'detailed design', #215, 'design' ) ;
#212 = CC_DESIGN_DATE_AND_TIME_ASSIGNMENT ( #24, #189, ( #118 ) ) ;
#213 = PERSON_AND_ORGANIZATION_ROLE ( 'classification_officer' ) ;
#214 = EDGE_CURVE ( 'NONE', #182, #45, #217, .T. ) ;
#215 = APPLICATION_CONTEXT ( 'configuration controlled 3d designs of mechanical parts and assemblies' ) ;
#216 = APPROVAL_ROLE ( '' ) ;
#217 = CIRCLE ( 'NONE', #35, 25.39999999999999900 ) ;
#218 = CARTESIAN_POINT ( 'NONE',  ( -15.38317121271093200, -25.67723730754856600, 8.792242544147960400 ) ) ;
#219 = VECTOR ( 'NONE', #222, 1000.000000000000000 ) ;
#220 = AXIS2_PLACEMENT_3D ( 'NONE', #27, #152, #164 ) ;
#221 = DIRECTION ( 'NONE',  ( 1.000000000000000000, 0.0000000000000000000, 0.0000000000000000000 ) ) ;
#222 = DIRECTION ( 'NONE',  ( 0.0000000000000000000, 0.0000000000000000000, 1.000000000000000000 ) ) ;
#223 = DIRECTION ( 'NONE',  ( 0.0000000000000000000, 0.0000000000000000000, 1.000000000000000000 ) ) ;
#224 = FACE_OUTER_BOUND ( 'NONE', #56, .T. ) ;
#225 = DIRECTION ( 'NONE',  ( 1.000000000000000000, 0.0000000000000000000, 0.0000000000000000000 ) ) ;
#226 = LOCAL_TIME ( 9, 4, 4.000000000000000000, #177 ) ;
#227 = CARTESIAN_POINT ( 'NONE',  ( 9.431689877877207800, -9.378952491840276900, -2.484311232252693500 ) ) ;
#228 = AXIS2_PLACEMENT_3D ( 'NONE', #128, #163, #59 ) ;
#229 = CARTESIAN_POINT ( 'NONE',  ( 9.992007221626412800E-016, 4.884981308350691100E-015, 6.644598951474179700 ) ) ;
#230 = CIRCLE ( 'NONE', #220, 25.39999999999999900 ) ;
#231 = CARTESIAN_POINT ( 'NONE',  ( -2.265364047049885700E-015, 25.67723730754859800, 6.801425757498876100 ) ) ;
#232 = PERSON_AND_ORGANIZATION_ROLE ( 'creator' ) ;
#233 = DATE_AND_TIME ( #95, #143 ) ;
#234 = ORIENTED_EDGE ( 'NONE', *, *, #151, .F. ) ;
#235 = AXIS2_PLACEMENT_3D ( 'NONE', #229, #44, #17 ) ;
ENDSEC;
END-ISO-10303-21;
