ISO-10303-21;
HEADER;
FILE_DESCRIPTION (( 'STEP AP203' ),
    '1' );
FILE_NAME ('110-0502E BK7 pl-cx 50.8 F75.STEP',
    '2018-12-21T07:04:16',
    ( '' ),
    ( '' ),
    'SwSTEP 2.0',
    'SolidWorks 2017',
    '' );
FILE_SCHEMA (( 'CONFIG_CONTROL_DESIGN' ));
ENDSEC;

DATA;
#1 = COORDINATED_UNIVERSAL_TIME_OFFSET ( 2, 0, .AHEAD. ) ;
#2 = AXIS2_PLACEMENT_3D ( 'NONE', #126, #217, #89 ) ;
#3 = PERSON_AND_ORGANIZATION_ROLE ( 'creator' ) ;
#4 = APPLICATION_PROTOCOL_DEFINITION ( 'international standard', 'config_control_design', 1994, #21 ) ;
#5 = PERSON_AND_ORGANIZATION ( #224, #66 ) ;
#6 =( NAMED_UNIT ( * ) SI_UNIT ( $, .STERADIAN. ) SOLID_ANGLE_UNIT ( ) );
#7 = DIRECTION ( 'NONE',  ( 0.0000000000000000000, -1.000000000000000000, -3.567554706379037700E-016 ) ) ;
#8 = CC_DESIGN_APPROVAL ( #100, ( #77 ) ) ;
#9 = PERSON_AND_ORGANIZATION ( #224, #66 ) ;
#10 = AXIS2_PLACEMENT_3D ( 'NONE', #87, #164, #185 ) ;
#11 = CARTESIAN_POINT ( 'NONE',  ( -19.18992961340293500, -25.65061696674805700, 16.83186798440300800 ) ) ;
#12 = AXIS2_PLACEMENT_3D ( 'NONE', #36, #202, #108 ) ;
#13 = LOCAL_TIME ( 9, 4, 16.00000000000000000, #198 ) ;
#14 = DATE_AND_TIME ( #57, #193 ) ;
#15 = CIRCLE ( 'NONE', #2, 25.39999999999999900 ) ;
#16 = CARTESIAN_POINT ( 'NONE',  ( -7.130503756728266800, -25.65061696674805700, 9.655242363370893700 ) ) ;
#17 = ADVANCED_FACE ( 'NONE', ( #58 ), #235, .T. ) ;
#18 = ADVANCED_FACE ( 'NONE', ( #194 ), #183, .T. ) ;
#19 = CARTESIAN_POINT ( 'NONE',  ( 1.065814103640150000E-014, 25.39999999999999900, 9.437311731615521300 ) ) ;
#20 = ORIENTED_EDGE ( 'NONE', *, *, #75, .F. ) ;
#21 = APPLICATION_CONTEXT ( 'configuration controlled 3d designs of mechanical parts and assemblies' ) ;
#22 = DATE_AND_TIME ( #31, #204 ) ;
#23 = DATE_TIME_ROLE ( 'creation_date' ) ;
#24 = PRODUCT_DEFINITION ( 'UNKNOWN', '', #77, #201 ) ;
#25 = ORIENTED_EDGE ( 'NONE', *, *, #43, .F. ) ;
#26 = EDGE_CURVE ( 'NONE', #176, #81, #154, .T. ) ;
#27 = ADVANCED_FACE ( 'NONE', ( #227 ), #47, .T. ) ;
#28 = CARTESIAN_POINT ( 'NONE',  ( -10.42497414969815300, -10.24554847826091300, -3.856564301416744600 ) ) ;
#29 = CARTESIAN_POINT ( 'NONE',  ( -25.39999999999999900, 7.995584178184967200E-015, 9.437311731615519500 ) ) ;
#30 = CARTESIAN_POINT ( 'NONE',  ( 3.469446951953614200E-015, -25.65061696674805700, 9.655242363370891900 ) ) ;
#31 = CALENDAR_DATE ( 2018, 21, 12 ) ;
#32 = CIRCLE ( 'NONE', #187, 25.39999999999999900 ) ;
#33 = CARTESIAN_POINT ( 'NONE',  ( 7.130503756728281900, 25.65061696674808200, 9.655242363370902600 ) ) ;
#34 = CC_DESIGN_DATE_AND_TIME_ASSIGNMENT ( #192, #206, ( #93 ) ) ;
#35 = MANIFOLD_SOLID_BREP ( 'Imported1', #222 ) ;
#36 = CARTESIAN_POINT ( 'NONE',  ( 9.992007221626412800E-016, 4.884981308350691100E-015, 12.30000000000000100 ) ) ;
#37 = DIRECTION ( 'NONE',  ( 1.000000000000000000, 0.0000000000000000000, -0.0000000000000000000 ) ) ;
#38 = ORIENTED_EDGE ( 'NONE', *, *, #207, .F. ) ;
#39 = DIRECTION ( 'NONE',  ( 1.000000000000000000, 0.0000000000000000000, 0.0000000000000000000 ) ) ;
#40 = APPLICATION_PROTOCOL_DEFINITION ( 'international standard', 'config_control_design', 1994, #147 ) ;
#41 = CARTESIAN_POINT ( 'NONE',  ( 9.992007221626412800E-016, 4.884981308350691100E-015, 9.437311731615519500 ) ) ;
#42 = DIRECTION ( 'NONE',  ( 1.000000000000000000, 0.0000000000000000000, 0.0000000000000000000 ) ) ;
#43 = EDGE_CURVE ( 'NONE', #119, #176, #113, .T. ) ;
#44 = DATE_AND_TIME ( #230, #13 ) ;
#45 = EDGE_LOOP ( 'NONE', ( #130, #73, #156 ) ) ;
#46 = AXIS2_PLACEMENT_3D ( 'NONE', #111, #182, #56 ) ;
#47 =( BOUNDED_SURFACE ( )  B_SPLINE_SURFACE ( 3, 3, ( 
 ( #64, #168, #82, #159 ),
 ( #61, #214, #103, #215 ),
 ( #233, #83, #105, #234 ),
 ( #70, #33, #53, #68 ) ),
 .UNSPECIFIED., .F., .F., .F. ) 
 B_SPLINE_SURFACE_WITH_KNOTS ( ( 4, 4 ),
 ( 4, 4 ),
 ( 0.0000000000000000000, 1.000000000000000000 ),
 ( 0.0000000000000000000, 1.000000000000000000 ),
 .UNSPECIFIED. ) 
 GEOMETRIC_REPRESENTATION_ITEM ( )  RATIONAL_B_SPLINE_SURFACE ( (
 ( 1.000000000000000000, 0.9577621916708695100, 0.9577621916708695100, 1.000000000000000000),
 ( 0.8345288369602245100, 0.7992801678995663500, 0.7992801678995663500, 0.8345288369602245100),
 ( 0.8345288369602245100, 0.7992801678995663500, 0.7992801678995663500, 0.8345288369602245100),
 ( 1.000000000000000000, 0.9577621916708695100, 0.9577621916708695100, 1.000000000000000000) ) ) 
 REPRESENTATION_ITEM ( '' )  SURFACE ( )  );
#48 = EDGE_LOOP ( 'NONE', ( #226, #232 ) ) ;
#49 = CARTESIAN_POINT ( 'NONE',  ( 3.469446951953614200E-015, 25.65061696674807500, 9.655242363370900800 ) ) ;
#50 = CC_DESIGN_PERSON_AND_ORGANIZATION_ASSIGNMENT ( #78, #149, ( #24 ) ) ;
#51 = CARTESIAN_POINT ( 'NONE',  ( -7.130503756728267600, 25.65061696674807800, 9.655242363370900800 ) ) ;
#52 = CARTESIAN_POINT ( 'NONE',  ( 9.992007221626412800E-016, 4.884981308350691100E-015, 9.437311731615519500 ) ) ;
#53 = CARTESIAN_POINT ( 'NONE',  ( 13.80924223700630400, 25.65061696674808200, 12.15294853839823300 ) ) ;
#54 = CC_DESIGN_DATE_AND_TIME_ASSIGNMENT ( #22, #23, ( #24 ) ) ;
#55 = PERSON_AND_ORGANIZATION_ROLE ( 'classification_officer' ) ;
#56 = DIRECTION ( 'NONE',  ( 1.000000000000000000, 0.0000000000000000000, 0.0000000000000000000 ) ) ;
#57 = CALENDAR_DATE ( 2018, 21, 12 ) ;
#58 = FACE_OUTER_BOUND ( 'NONE', #45, .T. ) ;
#59 = DATE_AND_TIME ( #160, #140 ) ;
#60 = EDGE_CURVE ( 'NONE', #142, #116, #171, .T. ) ;
#61 = CARTESIAN_POINT ( 'NONE',  ( 1.065814103640150000E-014, -10.24554847826091100, -3.856564301416744600 ) ) ;
#62 = ADVANCED_FACE ( 'NONE', ( #161 ), #177, .T. ) ;
#63 = PERSON_AND_ORGANIZATION ( #224, #66 ) ;
#64 = CARTESIAN_POINT ( 'NONE',  ( 1.065814103640150000E-014, -25.65061696674805300, 9.655242363370893700 ) ) ;
#65 = CARTESIAN_POINT ( 'NONE',  ( -13.80924223700629500, 25.65061696674808200, 12.15294853839823700 ) ) ;
#66 = ORGANIZATION ( 'UNSPECIFIED', 'UNSPECIFIED', '' ) ;
#67 = CARTESIAN_POINT ( 'NONE',  ( -25.39999999999999900, 7.995584178184967200E-015, 12.30000000000000100 ) ) ;
#68 = CARTESIAN_POINT ( 'NONE',  ( 19.18992961340295600, 25.65061696674807500, 16.83186798440301500 ) ) ;
#69 = DIRECTION ( 'NONE',  ( -0.0000000000000000000, -0.0000000000000000000, -1.000000000000000000 ) ) ;
#70 = CARTESIAN_POINT ( 'NONE',  ( 1.065814103640150000E-014, 25.65061696674807800, 9.655242363370904400 ) ) ;
#71 = AXIS2_PLACEMENT_3D ( 'NONE', #52, #69, #145 ) ;
#72 = CIRCLE ( 'NONE', #12, 25.39999999999999900 ) ;
#73 = ORIENTED_EDGE ( 'NONE', *, *, #43, .T. ) ;
#74 = SECURITY_CLASSIFICATION_LEVEL ( 'unclassified' ) ;
#75 = EDGE_CURVE ( 'NONE', #84, #142, #125, .T. ) ;
#76 = ORIENTED_EDGE ( 'NONE', *, *, #26, .T. ) ;
#77 = PRODUCT_DEFINITION_FORMATION_WITH_SPECIFIED_SOURCE ( 'ANY', '', #138, .NOT_KNOWN. ) ;
#78 = PERSON_AND_ORGANIZATION ( #224, #66 ) ;
#79 = SHAPE_DEFINITION_REPRESENTATION ( #86, #99 ) ;
#80 = CC_DESIGN_PERSON_AND_ORGANIZATION_ASSIGNMENT ( #5, #109, ( #138 ) ) ;
#81 = VERTEX_POINT ( 'NONE', #67 ) ;
#82 = CARTESIAN_POINT ( 'NONE',  ( 13.80924223700629800, -25.65061696674805300, 12.15294853839821900 ) ) ;
#83 = CARTESIAN_POINT ( 'NONE',  ( 10.42497414969815800, 10.24554847826094100, -3.856564301416735700 ) ) ;
#84 = VERTEX_POINT ( 'NONE', #19 ) ;
#85 = DIRECTION ( 'NONE',  ( 0.0000000000000000000, 0.0000000000000000000, 1.000000000000000000 ) ) ;
#86 = PRODUCT_DEFINITION_SHAPE ( 'NONE', 'NONE',  #24 ) ;
#87 = CARTESIAN_POINT ( 'NONE',  ( 9.992007221626412800E-016, 4.884981308350691100E-015, 9.437311731615519500 ) ) ;
#88 = UNCERTAINTY_MEASURE_WITH_UNIT (LENGTH_MEASURE( 1.000000000000000100E-005 ), #91, 'distance_accuracy_value', 'NONE');
#89 = DIRECTION ( 'NONE',  ( 1.000000000000000000, 0.0000000000000000000, 0.0000000000000000000 ) ) ;
#90 = EDGE_LOOP ( 'NONE', ( #137, #228, #122 ) ) ;
#91 =( LENGTH_UNIT ( ) NAMED_UNIT ( * ) SI_UNIT ( .MILLI., .METRE. ) );
#92 = ORIENTED_EDGE ( 'NONE', *, *, #26, .F. ) ;
#93 = SECURITY_CLASSIFICATION ( '', '', #74 ) ;
#94 =( NAMED_UNIT ( * ) PLANE_ANGLE_UNIT ( ) SI_UNIT ( $, .RADIAN. ) );
#95 = APPROVAL ( #163, 'UNSPECIFIED' ) ;
#96 = APPROVAL_STATUS ( 'not_yet_approved' ) ;
#97 = PRODUCT_RELATED_PRODUCT_CATEGORY ( 'detail', '', ( #138 ) ) ;
#98 = PERSON_AND_ORGANIZATION ( #224, #66 ) ;
#99 = ADVANCED_BREP_SHAPE_REPRESENTATION ( '110-0502E BK7 pl-cx 50.8 F75', ( #35, #46 ), #155 ) ;
#100 = APPROVAL ( #133, 'UNSPECIFIED' ) ;
#101 = EDGE_CURVE ( 'NONE', #176, #84, #32, .T. ) ;
#102 = CIRCLE ( 'NONE', #210, 38.89999999999999900 ) ;
#103 = CARTESIAN_POINT ( 'NONE',  ( 20.18945620943967600, -10.24554847826091300, -0.2048556428760851500 ) ) ;
#104 = APPROVAL_PERSON_ORGANIZATION ( #63, #95, #132 ) ;
#105 = CARTESIAN_POINT ( 'NONE',  ( 20.18945620943967600, 10.24554847826094000, -0.2048556428760773800 ) ) ;
#106 = CARTESIAN_POINT ( 'NONE',  ( 25.39999999999999900, 4.884981308350691100E-015, 12.30000000000000100 ) ) ;
#107 = CARTESIAN_POINT ( 'NONE',  ( 1.065814103640150000E-014, -25.39999999999998800, 9.437311731615524800 ) ) ;
#108 = DIRECTION ( 'NONE',  ( 1.000000000000000000, 0.0000000000000000000, 0.0000000000000000000 ) ) ;
#109 = PERSON_AND_ORGANIZATION_ROLE ( 'design_owner' ) ;
#110 = COORDINATED_UNIVERSAL_TIME_OFFSET ( 2, 0, .AHEAD. ) ;
#111 = CARTESIAN_POINT ( 'NONE',  ( 0.0000000000000000000, 0.0000000000000000000, 0.0000000000000000000 ) ) ;
#112 = DIRECTION ( 'NONE',  ( 1.000000000000000000, 0.0000000000000000000, 0.0000000000000000000 ) ) ;
#113 = CIRCLE ( 'NONE', #153, 25.39999999999999900 ) ;
#114 = ORIENTED_EDGE ( 'NONE', *, *, #60, .T. ) ;
#115 = EDGE_CURVE ( 'NONE', #81, #116, #15, .T. ) ;
#116 = VERTEX_POINT ( 'NONE', #106 ) ;
#117 = CYLINDRICAL_SURFACE ( 'NONE', #221, 25.39999999999999900 ) ;
#118 = CIRCLE ( 'NONE', #10, 25.39999999999999900 ) ;
#119 = VERTEX_POINT ( 'NONE', #107 ) ;
#120 = CARTESIAN_POINT ( 'NONE',  ( -20.18945620943966900, -10.24554847826091500, -0.2048556428760790700 ) ) ;
#121 = APPROVAL_DATE_TIME ( #59, #100 ) ;
#122 = ORIENTED_EDGE ( 'NONE', *, *, #75, .T. ) ;
#123 = CARTESIAN_POINT ( 'NONE',  ( -28.05615521420674700, 10.24554847826094000, 6.635841163025450100 ) ) ;
#124 = CARTESIAN_POINT ( 'NONE',  ( -20.18945620943966900, 10.24554847826094000, -0.2048556428760686700 ) ) ;
#125 = CIRCLE ( 'NONE', #71, 25.39999999999999900 ) ;
#126 = CARTESIAN_POINT ( 'NONE',  ( 9.992007221626412800E-016, 4.884981308350691100E-015, 12.30000000000000100 ) ) ;
#127 = CARTESIAN_POINT ( 'NONE',  ( -25.39999999999999900, 7.995584178184967200E-015, 9.437311731615519500 ) ) ;
#128 = DIRECTION ( 'NONE',  ( 0.0000000000000000000, 0.0000000000000000000, 1.000000000000000000 ) ) ;
#129 = APPROVAL_DATE_TIME ( #44, #229 ) ;
#130 = ORIENTED_EDGE ( 'NONE', *, *, #209, .F. ) ;
#131 = PERSON_AND_ORGANIZATION_ROLE ( 'design_supplier' ) ;
#132 = APPROVAL_ROLE ( '' ) ;
#133 = APPROVAL_STATUS ( 'not_yet_approved' ) ;
#134 = CC_DESIGN_PERSON_AND_ORGANIZATION_ASSIGNMENT ( #181, #131, ( #77 ) ) ;
#135 = COORDINATED_UNIVERSAL_TIME_OFFSET ( 2, 0, .AHEAD. ) ;
#136 = VECTOR ( 'NONE', #191, 1000.000000000000000 ) ;
#137 = ORIENTED_EDGE ( 'NONE', *, *, #207, .T. ) ;
#138 = PRODUCT ( '110-0502E BK7 pl-cx 50.8 F75', '110-0502E BK7 pl-cx 50.8 F75', '', ( #186 ) ) ;
#139 = APPROVAL_ROLE ( '' ) ;
#140 = LOCAL_TIME ( 9, 4, 16.00000000000000000, #188 ) ;
#141 = CC_DESIGN_PERSON_AND_ORGANIZATION_ASSIGNMENT ( #9, #55, ( #93 ) ) ;
#142 = VERTEX_POINT ( 'NONE', #220 ) ;
#143 = CARTESIAN_POINT ( 'NONE',  ( -3.469446951953613800E-015, -10.24554847826091300, -3.856564301416747200 ) ) ;
#144 = CARTESIAN_POINT ( 'NONE',  ( 25.39999999999999900, 4.884981308350691100E-015, 9.437311731615519500 ) ) ;
#145 = DIRECTION ( 'NONE',  ( 1.000000000000000000, -8.881784197001252300E-016, 0.0000000000000000000 ) ) ;
#146 = PERSON_AND_ORGANIZATION ( #224, #66 ) ;
#147 = APPLICATION_CONTEXT ( 'configuration controlled 3d designs of mechanical parts and assemblies' ) ;
#148 = VECTOR ( 'NONE', #128, 1000.000000000000000 ) ;
#149 = PERSON_AND_ORGANIZATION_ROLE ( 'creator' ) ;
#150 = CC_DESIGN_PERSON_AND_ORGANIZATION_ASSIGNMENT ( #98, #3, ( #77 ) ) ;
#151 = LOCAL_TIME ( 9, 4, 16.00000000000000000, #1 ) ;
#152 = ORIENTED_EDGE ( 'NONE', *, *, #60, .F. ) ;
#153 = AXIS2_PLACEMENT_3D ( 'NONE', #172, #199, #39 ) ;
#154 = LINE ( 'NONE', #29, #136 ) ;
#155 =( GEOMETRIC_REPRESENTATION_CONTEXT ( 3 ) GLOBAL_UNCERTAINTY_ASSIGNED_CONTEXT ( ( #88 ) ) GLOBAL_UNIT_ASSIGNED_CONTEXT ( ( #91, #94, #6 ) ) REPRESENTATION_CONTEXT ( 'NONE', 'WORKASPACE' ) );
#156 = ORIENTED_EDGE ( 'NONE', *, *, #101, .T. ) ;
#157 = CARTESIAN_POINT ( 'NONE',  ( -19.18992961340294200, 25.65061696674807500, 16.83186798440302200 ) ) ;
#158 = CARTESIAN_POINT ( 'NONE',  ( -10.42497414969815300, 10.24554847826094000, -3.856564301416737000 ) ) ;
#159 = CARTESIAN_POINT ( 'NONE',  ( 19.18992961340294900, -25.65061696674805700, 16.83186798440300100 ) ) ;
#160 = CALENDAR_DATE ( 2018, 21, 12 ) ;
#161 = FACE_OUTER_BOUND ( 'NONE', #48, .T. ) ;
#162 = DIRECTION ( 'NONE',  ( 1.000000000000000000, 0.0000000000000000000, 0.0000000000000000000 ) ) ;
#163 = APPROVAL_STATUS ( 'not_yet_approved' ) ;
#164 = DIRECTION ( 'NONE',  ( -0.0000000000000000000, -0.0000000000000000000, -1.000000000000000000 ) ) ;
#165 = DIRECTION ( 'NONE',  ( 0.0000000000000000000, 0.0000000000000000000, 1.000000000000000000 ) ) ;
#166 = APPROVAL_DATE_TIME ( #14, #95 ) ;
#167 = AXIS2_PLACEMENT_3D ( 'NONE', #219, #173, #37 ) ;
#168 = CARTESIAN_POINT ( 'NONE',  ( 7.130503756728281000, -25.65061696674805300, 9.655242363370893700 ) ) ;
#169 = CARTESIAN_POINT ( 'NONE',  ( 9.992007221626412800E-016, 4.884981308350691100E-015, 9.437311731615519500 ) ) ;
#170 = CARTESIAN_POINT ( 'NONE',  ( -3.469446951953613800E-015, 10.24554847826094000, -3.856564301416740100 ) ) ;
#171 = LINE ( 'NONE', #144, #148 ) ;
#172 = CARTESIAN_POINT ( 'NONE',  ( 9.992007221626412800E-016, 4.884981308350691100E-015, 9.437311731615519500 ) ) ;
#173 = DIRECTION ( 'NONE',  ( 0.0000000000000000000, 0.0000000000000000000, 1.000000000000000000 ) ) ;
#174 = CARTESIAN_POINT ( 'NONE',  ( 9.992007221626412800E-016, 4.884981308350691100E-015, 9.437311731615519500 ) ) ;
#175 = APPROVAL_PERSON_ORGANIZATION ( #203, #229, #139 ) ;
#176 = VERTEX_POINT ( 'NONE', #127 ) ;
#177 = PLANE ( 'NONE',  #167 ) ;
#178 = ORIENTED_EDGE ( 'NONE', *, *, #115, .T. ) ;
#179 = CC_DESIGN_APPROVAL ( #229, ( #93 ) ) ;
#180 = EDGE_CURVE ( 'NONE', #116, #81, #72, .T. ) ;
#181 = PERSON_AND_ORGANIZATION ( #224, #66 ) ;
#182 = DIRECTION ( 'NONE',  ( 0.0000000000000000000, 0.0000000000000000000, 1.000000000000000000 ) ) ;
#183 = CYLINDRICAL_SURFACE ( 'NONE', #196, 25.39999999999999900 ) ;
#184 = APPROVAL_ROLE ( '' ) ;
#185 = DIRECTION ( 'NONE',  ( 1.000000000000000000, 0.0000000000000000000, 0.0000000000000000000 ) ) ;
#186 = MECHANICAL_CONTEXT ( 'NONE', #147, 'mechanical' ) ;
#187 = AXIS2_PLACEMENT_3D ( 'NONE', #174, #197, #162 ) ;
#188 = COORDINATED_UNIVERSAL_TIME_OFFSET ( 2, 0, .AHEAD. ) ;
#189 = EDGE_LOOP ( 'NONE', ( #208, #76, #178, #152, #20 ) ) ;
#190 = CC_DESIGN_SECURITY_CLASSIFICATION ( #93, ( #77 ) ) ;
#191 = DIRECTION ( 'NONE',  ( 0.0000000000000000000, 0.0000000000000000000, 1.000000000000000000 ) ) ;
#192 = DATE_AND_TIME ( #225, #151 ) ;
#193 = LOCAL_TIME ( 9, 4, 16.00000000000000000, #110 ) ;
#194 = FACE_OUTER_BOUND ( 'NONE', #212, .T. ) ;
#195 = CARTESIAN_POINT ( 'NONE',  ( -13.80924223700628800, -25.65061696674805300, 12.15294853839822600 ) ) ;
#196 = AXIS2_PLACEMENT_3D ( 'NONE', #169, #85, #216 ) ;
#197 = DIRECTION ( 'NONE',  ( -0.0000000000000000000, -0.0000000000000000000, -1.000000000000000000 ) ) ;
#198 = COORDINATED_UNIVERSAL_TIME_OFFSET ( 2, 0, .AHEAD. ) ;
#199 = DIRECTION ( 'NONE',  ( -0.0000000000000000000, -0.0000000000000000000, -1.000000000000000000 ) ) ;
#200 = ORIENTED_EDGE ( 'NONE', *, *, #180, .T. ) ;
#201 = DESIGN_CONTEXT ( 'detailed design', #21, 'design' ) ;
#202 = DIRECTION ( 'NONE',  ( -0.0000000000000000000, -0.0000000000000000000, -1.000000000000000000 ) ) ;
#203 = PERSON_AND_ORGANIZATION ( #224, #66 ) ;
#204 = LOCAL_TIME ( 9, 4, 16.00000000000000000, #135 ) ;
#205 = FACE_OUTER_BOUND ( 'NONE', #189, .T. ) ;
#206 = DATE_TIME_ROLE ( 'classification_date' ) ;
#207 = EDGE_CURVE ( 'NONE', #142, #119, #118, .T. ) ;
#208 = ORIENTED_EDGE ( 'NONE', *, *, #101, .F. ) ;
#209 = EDGE_CURVE ( 'NONE', #119, #84, #102, .T. ) ;
#210 = AXIS2_PLACEMENT_3D ( 'NONE', #223, #42, #7 ) ;
#211 = APPROVAL_PERSON_ORGANIZATION ( #146, #100, #184 ) ;
#212 = EDGE_LOOP ( 'NONE', ( #92, #25, #38, #114, #200 ) ) ;
#213 = CARTESIAN_POINT ( 'NONE',  ( -28.05615521420674700, -10.24554847826091800, 6.635841163025439500 ) ) ;
#214 = CARTESIAN_POINT ( 'NONE',  ( 10.42497414969815800, -10.24554847826091300, -3.856564301416744600 ) ) ;
#215 = CARTESIAN_POINT ( 'NONE',  ( 28.05615521420676500, -10.24554847826091800, 6.635841163025430600 ) ) ;
#216 = DIRECTION ( 'NONE',  ( 1.000000000000000000, 0.0000000000000000000, 0.0000000000000000000 ) ) ;
#217 = DIRECTION ( 'NONE',  ( -0.0000000000000000000, -0.0000000000000000000, -1.000000000000000000 ) ) ;
#218 = CC_DESIGN_APPROVAL ( #95, ( #24 ) ) ;
#219 = CARTESIAN_POINT ( 'NONE',  ( 0.0000000000000000000, 52.02000000000000300, 12.30000000000000100 ) ) ;
#220 = CARTESIAN_POINT ( 'NONE',  ( 25.39999999999999900, 4.884981308350691100E-015, 9.437311731615519500 ) ) ;
#221 = AXIS2_PLACEMENT_3D ( 'NONE', #41, #165, #112 ) ;
#222 = CLOSED_SHELL ( 'NONE', ( #27, #231, #17, #18, #62 ) ) ;
#223 = CARTESIAN_POINT ( 'NONE',  ( 1.065814103640150000E-014, 1.065814103640150000E-014, 38.89999999999999900 ) ) ;
#224 = PERSON ( 'UNSPECIFIED', 'UNSPECIFIED', 'UNSPECIFIED', ('UNSPECIFIED'), ('UNSPECIFIED'), ('UNSPECIFIED') ) ;
#225 = CALENDAR_DATE ( 2018, 21, 12 ) ;
#226 = ORIENTED_EDGE ( 'NONE', *, *, #180, .F. ) ;
#227 = FACE_OUTER_BOUND ( 'NONE', #90, .T. ) ;
#228 = ORIENTED_EDGE ( 'NONE', *, *, #209, .T. ) ;
#229 = APPROVAL ( #96, 'UNSPECIFIED' ) ;
#230 = CALENDAR_DATE ( 2018, 21, 12 ) ;
#231 = ADVANCED_FACE ( 'NONE', ( #205 ), #117, .T. ) ;
#232 = ORIENTED_EDGE ( 'NONE', *, *, #115, .F. ) ;
#233 = CARTESIAN_POINT ( 'NONE',  ( 1.065814103640150000E-014, 10.24554847826094100, -3.856564301416734800 ) ) ;
#234 = CARTESIAN_POINT ( 'NONE',  ( 28.05615521420676500, 10.24554847826094000, 6.635841163025439500 ) ) ;
#235 =( BOUNDED_SURFACE ( )  B_SPLINE_SURFACE ( 3, 3, ( 
 ( #11, #195, #16, #30 ),
 ( #213, #120, #28, #143 ),
 ( #123, #124, #158, #170 ),
 ( #157, #65, #51, #49 ) ),
 .UNSPECIFIED., .F., .F., .F. ) 
 B_SPLINE_SURFACE_WITH_KNOTS ( ( 4, 4 ),
 ( 4, 4 ),
 ( 0.0000000000000000000, 1.000000000000000000 ),
 ( 0.0000000000000000000, 1.000000000000000000 ),
 .UNSPECIFIED. ) 
 GEOMETRIC_REPRESENTATION_ITEM ( )  RATIONAL_B_SPLINE_SURFACE ( (
 ( 1.000000000000000000, 0.9577621916708695100, 0.9577621916708695100, 1.000000000000000000),
 ( 0.8345288369602245100, 0.7992801678995663500, 0.7992801678995663500, 0.8345288369602245100),
 ( 0.8345288369602245100, 0.7992801678995663500, 0.7992801678995663500, 0.8345288369602245100),
 ( 1.000000000000000000, 0.9577621916708695100, 0.9577621916708695100, 1.000000000000000000) ) ) 
 REPRESENTATION_ITEM ( '' )  SURFACE ( )  );
ENDSEC;
END-ISO-10303-21;
