ISO-10303-21;
HEADER;
FILE_DESCRIPTION (( 'STEP AP203' ),
    '1' );
FILE_NAME ('110-0455E BK7 pl-cx 38.1 F5000.STEP',
    '2018-12-21T06:54:39',
    ( '' ),
    ( '' ),
    'SwSTEP 2.0',
    'SolidWorks 2017',
    '' );
FILE_SCHEMA (( 'CONFIG_CONTROL_DESIGN' ));
ENDSEC;

DATA;
#1 = DIRECTION ( 'NONE',  ( 1.000000000000000000, 0.0000000000000000000, -7.114187483500685500E-019 ) ) ;
#2 = CC_DESIGN_PERSON_AND_ORGANIZATION_ASSIGNMENT ( #7, #77, ( #188 ) ) ;
#3 = COORDINATED_UNIVERSAL_TIME_OFFSET ( 2, 0, .AHEAD. ) ;
#4 = CIRCLE ( 'NONE', #58, 19.05000000000000100 ) ;
#5 = CARTESIAN_POINT ( 'NONE',  ( -12.77641793567113700, 6.426316925213896500, -0.0002824372734337587800 ) ) ;
#6 = CARTESIAN_POINT ( 'NONE',  ( -6.387995524462188400, -19.27859581598931600, 0.07164020604398647900 ) ) ;
#7 = PERSON_AND_ORGANIZATION ( #116, #215 ) ;
#8 = VERTEX_POINT ( 'NONE', #180 ) ;
#9 = CARTESIAN_POINT ( 'NONE',  ( -6.387995524462174200, 19.27859581598951200, 0.07164020604398647900 ) ) ;
#10 = LOCAL_TIME ( 8, 54, 39.00000000000000000, #28 ) ;
#11 =( LENGTH_UNIT ( ) NAMED_UNIT ( * ) SI_UNIT ( .MILLI., .METRE. ) );
#12 = CARTESIAN_POINT ( 'NONE',  ( -3.465571525152054800E-013, 6.426316925213890300, -0.02388050836370470700 ) ) ;
#13 = CARTESIAN_POINT ( 'NONE',  ( 0.0000000000000000000, 0.0000000000000000000, 0.0000000000000000000 ) ) ;
#14 = APPROVAL_ROLE ( '' ) ;
#15 = DIRECTION ( 'NONE',  ( 1.000000000000000000, 0.0000000000000000000, 0.0000000000000000000 ) ) ;
#16 = PERSON_AND_ORGANIZATION ( #116, #215 ) ;
#17 = LINE ( 'NONE', #147, #82 ) ;
#18 = PERSON_AND_ORGANIZATION_ROLE ( 'creator' ) ;
#19 = APPROVAL_DATE_TIME ( #144, #120 ) ;
#20 = PRODUCT_RELATED_PRODUCT_CATEGORY ( 'detail', '', ( #163 ) ) ;
#21 = UNCERTAINTY_MEASURE_WITH_UNIT (LENGTH_MEASURE( 1.000000000000000100E-005 ), #11, 'distance_accuracy_value', 'NONE');
#22 = PERSON_AND_ORGANIZATION ( #116, #215 ) ;
#23 = ORIENTED_EDGE ( 'NONE', *, *, #187, .T. ) ;
#24 = DIRECTION ( 'NONE',  ( -3.584712535121920700E-016, -1.000000000000000000, -3.423972319584137200E-016 ) ) ;
#25 = CC_DESIGN_SECURITY_CLASSIFICATION ( #188, ( #154 ) ) ;
#26 = DIRECTION ( 'NONE',  ( 7.284927983104699700E-019, 3.396491246017399900E-035, 1.000000000000000000 ) ) ;
#27 = DIRECTION ( 'NONE',  ( 7.284927983104699700E-019, 3.396491246017399900E-035, 1.000000000000000000 ) ) ;
#28 = COORDINATED_UNIVERSAL_TIME_OFFSET ( 2, 0, .AHEAD. ) ;
#29 = CARTESIAN_POINT ( 'NONE',  ( -6.388230760679801000, -6.426316925213702900, -0.02388050836360766300 ) ) ;
#30 = FACE_OUTER_BOUND ( 'NONE', #48, .T. ) ;
#31 = CIRCLE ( 'NONE', #56, 19.05000000000000100 ) ;
#32 = EDGE_CURVE ( 'NONE', #194, #198, #31, .T. ) ;
#33 = CARTESIAN_POINT ( 'NONE',  ( 19.04999999999999700, -8.881784197001250400E-016, 4.000000000000000000 ) ) ;
#34 = FACE_OUTER_BOUND ( 'NONE', #50, .T. ) ;
#35 = CARTESIAN_POINT ( 'NONE',  ( 6.387995524460505300, -19.27859581598932300, 0.07164020604388611500 ) ) ;
#36 = CARTESIAN_POINT ( 'NONE',  ( 12.77594746483886100, -19.27859581598932300, 0.09523740817363689200 ) ) ;
#37 = DIRECTION ( 'NONE',  ( 1.000000000000000000, 0.0000000000000000000, -7.114187483500685500E-019 ) ) ;
#38 = DATE_TIME_ROLE ( 'classification_date' ) ;
#39 = APPROVAL_PERSON_ORGANIZATION ( #140, #206, #213 ) ;
#40 = APPROVAL_STATUS ( 'not_yet_approved' ) ;
#41 = CC_DESIGN_APPROVAL ( #111, ( #90 ) ) ;
#42 = CYLINDRICAL_SURFACE ( 'NONE', #81, 19.05000000000000100 ) ;
#43 = CALENDAR_DATE ( 2018, 21, 12 ) ;
#44 = DIRECTION ( 'NONE',  ( 1.000000000000000000, 0.0000000000000000000, -7.114187483500685500E-019 ) ) ;
#45 = ORIENTED_EDGE ( 'NONE', *, *, #100, .F. ) ;
#46 = DIRECTION ( 'NONE',  ( -7.284927983104699700E-019, -3.396491246017399900E-035, -1.000000000000000000 ) ) ;
#47 = COORDINATED_UNIVERSAL_TIME_OFFSET ( 2, 0, .AHEAD. ) ;
#48 = EDGE_LOOP ( 'NONE', ( #115, #79 ) ) ;
#49 = EDGE_CURVE ( 'NONE', #160, #8, #89, .T. ) ;
#50 = EDGE_LOOP ( 'NONE', ( #235, #135, #223, #101, #99 ) ) ;
#51 = CARTESIAN_POINT ( 'NONE',  ( 6.387995524460519500, 19.27859581598950500, 0.07164020604388611500 ) ) ;
#52 = CARTESIAN_POINT ( 'NONE',  ( 19.04999999999999700, -8.881784197001250400E-016, 0.06995130940356460200 ) ) ;
#53 = CARTESIAN_POINT ( 'NONE',  ( 19.16376865356444600, -19.27859581598932700, 0.1424314904344492800 ) ) ;
#54 = FACE_OUTER_BOUND ( 'NONE', #181, .T. ) ;
#55 = DIRECTION ( 'NONE',  ( 7.284927983104699700E-019, 3.396491246017399900E-035, 1.000000000000000000 ) ) ;
#56 = AXIS2_PLACEMENT_3D ( 'NONE', #83, #62, #221 ) ;
#57 = AXIS2_PLACEMENT_3D ( 'NONE', #199, #197, #24 ) ;
#58 = AXIS2_PLACEMENT_3D ( 'NONE', #103, #107, #37 ) ;
#59 = EDGE_CURVE ( 'NONE', #203, #149, #118, .T. ) ;
#60 = APPROVAL_PERSON_ORGANIZATION ( #69, #120, #14 ) ;
#61 = ORIENTED_EDGE ( 'NONE', *, *, #73, .F. ) ;
#62 = DIRECTION ( 'NONE',  ( -7.284927983104699700E-019, -3.396491246017399900E-035, -1.000000000000000000 ) ) ;
#63 = CARTESIAN_POINT ( 'NONE',  ( -9.853229343548262300E-013, -6.426316925213702900, -0.02388050836361119500 ) ) ;
#64 = DATE_AND_TIME ( #159, #10 ) ;
#65 = ORIENTED_EDGE ( 'NONE', *, *, #49, .T. ) ;
#66 = ADVANCED_FACE ( 'NONE', ( #227 ), #42, .T. ) ;
#67 = AXIS2_PLACEMENT_3D ( 'NONE', #204, #225, #205 ) ;
#68 = DIRECTION ( 'NONE',  ( 1.000000000000000000, 0.0000000000000000000, -0.0000000000000000000 ) ) ;
#69 = PERSON_AND_ORGANIZATION ( #116, #215 ) ;
#70 = PLANE ( 'NONE',  #196 ) ;
#71 = CARTESIAN_POINT ( 'NONE',  ( -4.660073691257550900E-015, -8.881784197001250400E-016, 4.000000000000000000 ) ) ;
#72 = CARTESIAN_POINT ( 'NONE',  ( 12.77641793566913700, 6.426316925213888500, -0.0002824372733322029200 ) ) ;
#73 = EDGE_CURVE ( 'NONE', #149, #8, #169, .T. ) ;
#74 = PERSON_AND_ORGANIZATION_ROLE ( 'design_owner' ) ;
#75 = SECURITY_CLASSIFICATION_LEVEL ( 'unclassified' ) ;
#76 = APPLICATION_PROTOCOL_DEFINITION ( 'international standard', 'config_control_design', 1994, #126 ) ;
#77 = PERSON_AND_ORGANIZATION_ROLE ( 'classification_officer' ) ;
#78 = PERSON_AND_ORGANIZATION_ROLE ( 'design_supplier' ) ;
#79 = ORIENTED_EDGE ( 'NONE', *, *, #32, .F. ) ;
#80 = DIRECTION ( 'NONE',  ( 1.000000000000000000, 0.0000000000000000000, -7.114187483500685500E-019 ) ) ;
#81 = AXIS2_PLACEMENT_3D ( 'NONE', #182, #26, #80 ) ;
#82 = VECTOR ( 'NONE', #27, 1000.000000000000000 ) ;
#83 = CARTESIAN_POINT ( 'NONE',  ( -4.660073691257550900E-015, -8.881784197001250400E-016, 4.000000000000000000 ) ) ;
#84 = DESIGN_CONTEXT ( 'detailed design', #95, 'design' ) ;
#85 = EDGE_CURVE ( 'NONE', #203, #198, #17, .T. ) ;
#86 = DATE_AND_TIME ( #201, #222 ) ;
#87 = ORIENTED_EDGE ( 'NONE', *, *, #100, .T. ) ;
#88 =( BOUNDED_SURFACE ( )  B_SPLINE_SURFACE ( 3, 3, ( 
 ( #114, #131, #6, #134 ),
 ( #226, #151, #29, #63 ),
 ( #186, #5, #133, #92 ),
 ( #211, #93, #9, #214 ) ),
 .UNSPECIFIED., .F., .F., .F. ) 
 B_SPLINE_SURFACE_WITH_KNOTS ( ( 4, 4 ),
 ( 4, 4 ),
 ( 0.0000000000000000000, 1.000000000000000000 ),
 ( 0.0000000000000000000, 1.000000000000000000 ),
 .UNSPECIFIED. ) 
 GEOMETRIC_REPRESENTATION_ITEM ( )  RATIONAL_B_SPLINE_SURFACE ( (
 ( 1.000000000000000000, 0.9999954514597121400, 0.9999954514597121400, 1.000000000000000000),
 ( 0.9999815882276936700, 0.9999770397711524900, 0.9999770397711524900, 0.9999815882276936700),
 ( 0.9999815882276936700, 0.9999770397711524900, 0.9999770397711524900, 0.9999815882276936700),
 ( 1.000000000000000000, 0.9999954514597121400, 0.9999954514597121400, 1.000000000000000000) ) ) 
 REPRESENTATION_ITEM ( '' )  SURFACE ( )  );
#89 = CIRCLE ( 'NONE', #97, 19.05000000000000100 ) ;
#90 = PRODUCT_DEFINITION ( 'UNKNOWN', '', #154, #84 ) ;
#91 = CARTESIAN_POINT ( 'NONE',  ( -3.556606114206554900E-013, -19.05000000000040600, 0.06995130940356773800 ) ) ;
#92 = CARTESIAN_POINT ( 'NONE',  ( -9.783840404509192000E-013, 6.426316925213890300, -0.02388050836360986600 ) ) ;
#93 = CARTESIAN_POINT ( 'NONE',  ( -12.77594746484086700, 19.27859581598951200, 0.09523740817353532100 ) ) ;
#94 = AXIS2_PLACEMENT_3D ( 'NONE', #13, #158, #15 ) ;
#95 = APPLICATION_CONTEXT ( 'configuration controlled 3d designs of mechanical parts and assemblies' ) ;
#96 = CLOSED_SHELL ( 'NONE', ( #228, #150, #138, #66, #166 ) ) ;
#97 = AXIS2_PLACEMENT_3D ( 'NONE', #200, #146, #44 ) ;
#98 = LINE ( 'NONE', #175, #216 ) ;
#99 = ORIENTED_EDGE ( 'NONE', *, *, #187, .F. ) ;
#100 = EDGE_CURVE ( 'NONE', #149, #160, #127, .T. ) ;
#101 = ORIENTED_EDGE ( 'NONE', *, *, #85, .F. ) ;
#102 = AXIS2_PLACEMENT_3D ( 'NONE', #162, #46, #1 ) ;
#103 = CARTESIAN_POINT ( 'NONE',  ( -4.662936703425659800E-015, -8.881784197001250400E-016, 0.06995130940356461500 ) ) ;
#104 = DIRECTION ( 'NONE',  ( 0.0000000000000000000, 0.0000000000000000000, 1.000000000000000000 ) ) ;
#105 = CC_DESIGN_PERSON_AND_ORGANIZATION_ASSIGNMENT ( #16, #143, ( #90 ) ) ;
#106 = CARTESIAN_POINT ( 'NONE',  ( 12.77641793566913400, -6.426316925213709100, -0.0002824372733335582800 ) ) ;
#107 = DIRECTION ( 'NONE',  ( -7.284927983104699700E-019, -3.396491246017399900E-035, -1.000000000000000000 ) ) ;
#108 = DATE_AND_TIME ( #129, #121 ) ;
#109 = APPROVAL_STATUS ( 'not_yet_approved' ) ;
#110 = DATE_TIME_ROLE ( 'creation_date' ) ;
#111 = APPROVAL ( #109, 'UNSPECIFIED' ) ;
#112 = COORDINATED_UNIVERSAL_TIME_OFFSET ( 2, 0, .AHEAD. ) ;
#113 = APPROVAL_DATE_TIME ( #108, #111 ) ;
#114 = CARTESIAN_POINT ( 'NONE',  ( -19.16376865356680200, -19.27859581598931300, 0.1424314904343582100 ) ) ;
#115 = ORIENTED_EDGE ( 'NONE', *, *, #209, .F. ) ;
#116 = PERSON ( 'UNSPECIFIED', 'UNSPECIFIED', 'UNSPECIFIED', ('UNSPECIFIED'), ('UNSPECIFIED'), ('UNSPECIFIED') ) ;
#117 = COORDINATED_UNIVERSAL_TIME_OFFSET ( 2, 0, .AHEAD. ) ;
#118 = CIRCLE ( 'NONE', #102, 19.05000000000000100 ) ;
#119 = CARTESIAN_POINT ( 'NONE',  ( -3.419203884262675400E-013, 19.27859581598950800, 0.07164020604388809900 ) ) ;
#120 = APPROVAL ( #40, 'UNSPECIFIED' ) ;
#121 = LOCAL_TIME ( 8, 54, 39.00000000000000000, #117 ) ;
#122 = MANIFOLD_SOLID_BREP ( 'Imported1', #96 ) ;
#123 = DIRECTION ( 'NONE',  ( -7.284927983104699700E-019, -3.396491246017399900E-035, -1.000000000000000000 ) ) ;
#124 = PERSON_AND_ORGANIZATION ( #116, #215 ) ;
#125 = EDGE_LOOP ( 'NONE', ( #167, #45, #232, #185, #220 ) ) ;
#126 = APPLICATION_CONTEXT ( 'configuration controlled 3d designs of mechanical parts and assemblies' ) ;
#127 = CIRCLE ( 'NONE', #67, 19.05000000000000100 ) ;
#128 = CC_DESIGN_DATE_AND_TIME_ASSIGNMENT ( #86, #38, ( #188 ) ) ;
#129 = CALENDAR_DATE ( 2018, 21, 12 ) ;
#130 = ORIENTED_EDGE ( 'NONE', *, *, #59, .T. ) ;
#131 = CARTESIAN_POINT ( 'NONE',  ( -12.77594746484088100, -19.27859581598931600, 0.09523740817353532100 ) ) ;
#132 = CC_DESIGN_PERSON_AND_ORGANIZATION_ASSIGNMENT ( #195, #18, ( #154 ) ) ;
#133 = CARTESIAN_POINT ( 'NONE',  ( -6.388230760679793900, 6.426316925213894700, -0.02388050836360634100 ) ) ;
#134 = CARTESIAN_POINT ( 'NONE',  ( -9.922618282587336600E-013, -19.27859581598932000, 0.07164020604398292600 ) ) ;
#135 = ORIENTED_EDGE ( 'NONE', *, *, #224, .T. ) ;
#136 = CARTESIAN_POINT ( 'NONE',  ( 0.0000000000000000000, 39.06600000000000300, 4.000000000000000000 ) ) ;
#137 = CARTESIAN_POINT ( 'NONE',  ( -4.662936703425659800E-015, -8.881784197001250400E-016, 0.06995130940356460200 ) ) ;
#138 = ADVANCED_FACE ( 'NONE', ( #190 ), #88, .T. ) ;
#139 = CC_DESIGN_PERSON_AND_ORGANIZATION_ASSIGNMENT ( #22, #74, ( #163 ) ) ;
#140 = PERSON_AND_ORGANIZATION ( #116, #215 ) ;
#141 = CARTESIAN_POINT ( 'NONE',  ( -3.511644522825016400E-013, -6.426316925213702900, -0.02388050836370605000 ) ) ;
#142 = ORIENTED_EDGE ( 'NONE', *, *, #73, .T. ) ;
#143 = PERSON_AND_ORGANIZATION_ROLE ( 'creator' ) ;
#144 = DATE_AND_TIME ( #43, #210 ) ;
#145 = APPROVAL_DATE_TIME ( #231, #206 ) ;
#146 = DIRECTION ( 'NONE',  ( -7.284927983104699700E-019, -3.396491246017399900E-035, -1.000000000000000000 ) ) ;
#147 = CARTESIAN_POINT ( 'NONE',  ( 19.04999999999999700, -8.881784197001250400E-016, 0.06995130940356458800 ) ) ;
#148 = CIRCLE ( 'NONE', #172, 19.05000000000000100 ) ;
#149 = VERTEX_POINT ( 'NONE', #91 ) ;
#150 = ADVANCED_FACE ( 'NONE', ( #34 ), #174, .T. ) ;
#151 = CARTESIAN_POINT ( 'NONE',  ( -12.77641793567114400, -6.426316925213701100, -0.0002824372734351005900 ) ) ;
#152 = PRODUCT_DEFINITION_SHAPE ( 'NONE', 'NONE',  #90 ) ;
#153 = CARTESIAN_POINT ( 'NONE',  ( 6.388230760678132100, 6.426316925213890300, -0.02388050836370669100 ) ) ;
#154 = PRODUCT_DEFINITION_FORMATION_WITH_SPECIFIED_SOURCE ( 'ANY', '', #163, .NOT_KNOWN. ) ;
#155 = DIRECTION ( 'NONE',  ( 7.284927983104699700E-019, 3.396491246017399900E-035, 1.000000000000000000 ) ) ;
#156 = CARTESIAN_POINT ( 'NONE',  ( 6.388230760678127700, -6.426316925213708200, -0.02388050836370803100 ) ) ;
#157 = APPROVAL_STATUS ( 'not_yet_approved' ) ;
#158 = DIRECTION ( 'NONE',  ( 0.0000000000000000000, 0.0000000000000000000, 1.000000000000000000 ) ) ;
#159 = CALENDAR_DATE ( 2018, 21, 12 ) ;
#160 = VERTEX_POINT ( 'NONE', #173 ) ;
#161 = ADVANCED_BREP_SHAPE_REPRESENTATION ( '110-0455E BK7 pl-cx 38.1 F5000', ( #122, #94 ), #184 ) ;
#162 = CARTESIAN_POINT ( 'NONE',  ( -4.662936703425659800E-015, -8.881784197001250400E-016, 0.06995130940356461500 ) ) ;
#163 = PRODUCT ( '110-0455E BK7 pl-cx 38.1 F5000', '110-0455E BK7 pl-cx 38.1 F5000', '', ( #192 ) ) ;
#164 = CC_DESIGN_APPROVAL ( #120, ( #154 ) ) ;
#165 = SHAPE_DEFINITION_REPRESENTATION ( #152, #161 ) ;
#166 = ADVANCED_FACE ( 'NONE', ( #30 ), #70, .T. ) ;
#167 = ORIENTED_EDGE ( 'NONE', *, *, #224, .F. ) ;
#168 = CC_DESIGN_DATE_AND_TIME_ASSIGNMENT ( #64, #110, ( #90 ) ) ;
#169 = CIRCLE ( 'NONE', #57, 2594.000000000000000 ) ;
#170 = CARTESIAN_POINT ( 'NONE',  ( 12.77594746483887500, 19.27859581598950500, 0.09523740817363689200 ) ) ;
#171 = DIRECTION ( 'NONE',  ( 1.000000000000000000, 0.0000000000000000000, -7.114187483500685500E-019 ) ) ;
#172 = AXIS2_PLACEMENT_3D ( 'NONE', #71, #123, #212 ) ;
#173 = CARTESIAN_POINT ( 'NONE',  ( -19.05000000000000400, 1.444773732675583000E-015, 0.06995130940356462900 ) ) ;
#174 = CYLINDRICAL_SURFACE ( 'NONE', #217, 19.05000000000000100 ) ;
#175 = CARTESIAN_POINT ( 'NONE',  ( -19.05000000000000400, 1.444773732675583000E-015, 0.06995130940356461500 ) ) ;
#176 =( NAMED_UNIT ( * ) PLANE_ANGLE_UNIT ( ) SI_UNIT ( $, .RADIAN. ) );
#177 = EDGE_LOOP ( 'NONE', ( #61, #87, #65 ) ) ;
#178 = CC_DESIGN_PERSON_AND_ORGANIZATION_ASSIGNMENT ( #183, #78, ( #154 ) ) ;
#179 = CC_DESIGN_APPROVAL ( #206, ( #188 ) ) ;
#180 = CARTESIAN_POINT ( 'NONE',  ( -3.420028566618406200E-013, 19.05000000000063700, 0.06995130940356773800 ) ) ;
#181 = EDGE_LOOP ( 'NONE', ( #130, #142, #23 ) ) ;
#182 = CARTESIAN_POINT ( 'NONE',  ( -4.662936703425659800E-015, -8.881784197001250400E-016, 0.06995130940356460200 ) ) ;
#183 = PERSON_AND_ORGANIZATION ( #116, #215 ) ;
#184 =( GEOMETRIC_REPRESENTATION_CONTEXT ( 3 ) GLOBAL_UNCERTAINTY_ASSIGNED_CONTEXT ( ( #21 ) ) GLOBAL_UNIT_ASSIGNED_CONTEXT ( ( #11, #176, #233 ) ) REPRESENTATION_CONTEXT ( 'NONE', 'WORKASPACE' ) );
#185 = ORIENTED_EDGE ( 'NONE', *, *, #85, .T. ) ;
#186 = CARTESIAN_POINT ( 'NONE',  ( -19.16447435419480500, 6.426316925213897400, 0.04691338289677908500 ) ) ;
#187 = EDGE_CURVE ( 'NONE', #8, #203, #4, .T. ) ;
#188 = SECURITY_CLASSIFICATION ( '', '', #75 ) ;
#189 = CARTESIAN_POINT ( 'NONE',  ( -19.05000000000000400, 1.444773732675583000E-015, 4.000000000000000000 ) ) ;
#190 = FACE_OUTER_BOUND ( 'NONE', #177, .T. ) ;
#191 = APPLICATION_PROTOCOL_DEFINITION ( 'international standard', 'config_control_design', 1994, #95 ) ;
#192 = MECHANICAL_CONTEXT ( 'NONE', #126, 'mechanical' ) ;
#193 = CALENDAR_DATE ( 2018, 21, 12 ) ;
#194 = VERTEX_POINT ( 'NONE', #189 ) ;
#195 = PERSON_AND_ORGANIZATION ( #116, #215 ) ;
#196 = AXIS2_PLACEMENT_3D ( 'NONE', #136, #104, #68 ) ;
#197 = DIRECTION ( 'NONE',  ( 1.000000000000000000, -3.584712535121920200E-016, -3.097921184626219800E-016 ) ) ;
#198 = VERTEX_POINT ( 'NONE', #33 ) ;
#199 = CARTESIAN_POINT ( 'NONE',  ( 4.547473508864640200E-013, 2.273736754432320100E-013, 2594.000000000000000 ) ) ;
#200 = CARTESIAN_POINT ( 'NONE',  ( -4.662936703425659800E-015, -8.881784197001250400E-016, 0.06995130940356461500 ) ) ;
#201 = CALENDAR_DATE ( 2018, 21, 12 ) ;
#202 = APPROVAL_PERSON_ORGANIZATION ( #124, #111, #234 ) ;
#203 = VERTEX_POINT ( 'NONE', #52 ) ;
#204 = CARTESIAN_POINT ( 'NONE',  ( -4.662936703425659800E-015, -8.881784197001250400E-016, 0.06995130940356461500 ) ) ;
#205 = DIRECTION ( 'NONE',  ( 1.000000000000000000, 0.0000000000000000000, -7.114187483500685500E-019 ) ) ;
#206 = APPROVAL ( #157, 'UNSPECIFIED' ) ;
#207 = CARTESIAN_POINT ( 'NONE',  ( 19.16447435419246800, 6.426316925213883200, 0.04691338289687013700 ) ) ;
#208 = CARTESIAN_POINT ( 'NONE',  ( 19.16376865356446000, 19.27859581598950100, 0.1424314904344492800 ) ) ;
#209 = EDGE_CURVE ( 'NONE', #198, #194, #148, .T. ) ;
#210 = LOCAL_TIME ( 8, 54, 39.00000000000000000, #112 ) ;
#211 = CARTESIAN_POINT ( 'NONE',  ( -19.16376865356678700, 19.27859581598951500, 0.1424314904343582100 ) ) ;
#212 = DIRECTION ( 'NONE',  ( 1.000000000000000000, 0.0000000000000000000, 0.0000000000000000000 ) ) ;
#213 = APPROVAL_ROLE ( '' ) ;
#214 = CARTESIAN_POINT ( 'NONE',  ( -9.783840404509192000E-013, 19.27859581598950800, 0.07164020604398292600 ) ) ;
#215 = ORGANIZATION ( 'UNSPECIFIED', 'UNSPECIFIED', '' ) ;
#216 = VECTOR ( 'NONE', #155, 1000.000000000000000 ) ;
#217 = AXIS2_PLACEMENT_3D ( 'NONE', #137, #55, #171 ) ;
#218 =( BOUNDED_SURFACE ( )  B_SPLINE_SURFACE ( 3, 3, ( 
 ( #229, #35, #36, #53 ),
 ( #141, #156, #106, #230 ),
 ( #12, #153, #72, #207 ),
 ( #119, #51, #170, #208 ) ),
 .UNSPECIFIED., .F., .F., .F. ) 
 B_SPLINE_SURFACE_WITH_KNOTS ( ( 4, 4 ),
 ( 4, 4 ),
 ( 0.0000000000000000000, 1.000000000000000000 ),
 ( 0.0000000000000000000, 1.000000000000000000 ),
 .UNSPECIFIED. ) 
 GEOMETRIC_REPRESENTATION_ITEM ( )  RATIONAL_B_SPLINE_SURFACE ( (
 ( 1.000000000000000000, 0.9999954514597121400, 0.9999954514597121400, 1.000000000000000000),
 ( 0.9999815882276936700, 0.9999770397711524900, 0.9999770397711524900, 0.9999815882276936700),
 ( 0.9999815882276936700, 0.9999770397711524900, 0.9999770397711524900, 0.9999815882276936700),
 ( 1.000000000000000000, 0.9999954514597121400, 0.9999954514597121400, 1.000000000000000000) ) ) 
 REPRESENTATION_ITEM ( '' )  SURFACE ( )  );
#219 = LOCAL_TIME ( 8, 54, 39.00000000000000000, #47 ) ;
#220 = ORIENTED_EDGE ( 'NONE', *, *, #209, .T. ) ;
#221 = DIRECTION ( 'NONE',  ( 1.000000000000000000, 0.0000000000000000000, 0.0000000000000000000 ) ) ;
#222 = LOCAL_TIME ( 8, 54, 39.00000000000000000, #3 ) ;
#223 = ORIENTED_EDGE ( 'NONE', *, *, #32, .T. ) ;
#224 = EDGE_CURVE ( 'NONE', #160, #194, #98, .T. ) ;
#225 = DIRECTION ( 'NONE',  ( -7.284927983104699700E-019, -3.396491246017399900E-035, -1.000000000000000000 ) ) ;
#226 = CARTESIAN_POINT ( 'NONE',  ( -19.16447435419481200, -6.426316925213695800, 0.04691338289677774600 ) ) ;
#227 = FACE_OUTER_BOUND ( 'NONE', #125, .T. ) ;
#228 = ADVANCED_FACE ( 'NONE', ( #54 ), #218, .T. ) ;
#229 = CARTESIAN_POINT ( 'NONE',  ( -3.557420332424928300E-013, -19.27859581598932000, 0.07164020604388809900 ) ) ;
#230 = CARTESIAN_POINT ( 'NONE',  ( 19.16447435419246400, -6.426316925213710000, 0.04691338289686879800 ) ) ;
#231 = DATE_AND_TIME ( #193, #219 ) ;
#232 = ORIENTED_EDGE ( 'NONE', *, *, #59, .F. ) ;
#233 =( NAMED_UNIT ( * ) SI_UNIT ( $, .STERADIAN. ) SOLID_ANGLE_UNIT ( ) );
#234 = APPROVAL_ROLE ( '' ) ;
#235 = ORIENTED_EDGE ( 'NONE', *, *, #49, .F. ) ;
ENDSEC;
END-ISO-10303-21;
