ISO-10303-21;
HEADER;
FILE_DESCRIPTION (( 'STEP AP203' ),
    '1' );
FILE_NAME ('110-0450E BK7 pl-cx 38.1 F2500.STEP',
    '2019-10-01T07:17:55',
    ( '' ),
    ( '' ),
    'SwSTEP 2.0',
    'SolidWorks 2019',
    '' );
FILE_SCHEMA (( 'CONFIG_CONTROL_DESIGN' ));
ENDSEC;

DATA;
#1 = ORIENTED_EDGE ( 'NONE', *, *, #70, .F. ) ;
#2 = PERSON_AND_ORGANIZATION ( #76, #162 ) ;
#3 = LOCAL_TIME ( 10, 17, 55.00000000000000000, #4 ) ;
#4 = COORDINATED_UNIVERSAL_TIME_OFFSET ( 2, 0, .AHEAD. ) ;
#5 = ORIENTED_EDGE ( 'NONE', *, *, #19, .T. ) ;
#6 = DIRECTION ( 'NONE',  ( 0.0000000000000000000, 0.0000000000000000000, 1.000000000000000000 ) ) ;
#7 = CARTESIAN_POINT ( 'NONE',  ( 19.04999999999999716, -2.157041537713704155E-29, 0.1399082784604409602 ) ) ;
#8 = LOCAL_TIME ( 10, 17, 55.00000000000000000, #37 ) ;
#9 = APPLICATION_PROTOCOL_DEFINITION ( 'international standard', 'config_control_design', 1994, #130 ) ;
#10 = CARTESIAN_POINT ( 'NONE',  ( 19.04999999999999716, 19.04999999999999716, 0.1399082784604410157 ) ) ;
#11 = CARTESIAN_POINT ( 'NONE',  ( -19.05000000000000071, 2.332952152375710015E-15, 0.1399082784604409879 ) ) ;
#12 = DIRECTION ( 'NONE',  ( 0.0000000000000000000, -1.000000000000000000, -3.423972319584137653E-16 ) ) ;
#13 = AXIS2_PLACEMENT_3D ( 'NONE', #77, #98, #155 ) ;
#14 =( BOUNDED_CURVE ( )  B_SPLINE_CURVE ( 2, ( #78, #86, #79, #26, #62 ),
 .UNSPECIFIED., .F., .T. ) 
 B_SPLINE_CURVE_WITH_KNOTS ( ( 3, 2, 3 ),
 ( 3.141592653589778461, 4.712388980384684345, 6.283185307179590673 ),
 .UNSPECIFIED. ) 
 CURVE ( )  GEOMETRIC_REPRESENTATION_ITEM ( )  RATIONAL_B_SPLINE_CURVE ( ( 1.000000000000002220, 0.7071067811865459074, 1.000000000000000000, 0.7071067811865480168, 1.000000000000000000 ) ) 
 REPRESENTATION_ITEM ( '' )  );
#15 = PERSON_AND_ORGANIZATION_ROLE ( 'design_supplier' ) ;
#16 = COORDINATED_UNIVERSAL_TIME_OFFSET ( 2, 0, .AHEAD. ) ;
#17 = CC_DESIGN_PERSON_AND_ORGANIZATION_ASSIGNMENT ( #100, #44, ( #65 ) ) ;
#18 = PERSON_AND_ORGANIZATION ( #76, #162 ) ;
#19 = EDGE_CURVE ( 'NONE', #139, #126, #153, .T. ) ;
#20 = DATE_AND_TIME ( #29, #114 ) ;
#21 = EDGE_LOOP ( 'NONE', ( #56, #35 ) ) ;
#22 = ORIENTED_EDGE ( 'NONE', *, *, #82, .T. ) ;
#23 = CARTESIAN_POINT ( 'NONE',  ( -19.05000000000000071, 2.332952152375710015E-15, 0.1399082784604409879 ) ) ;
#24 = CARTESIAN_POINT ( 'NONE',  ( 19.04999999999999716, 19.04999999999999716, 3.999999999999997335 ) ) ;
#25 = CARTESIAN_POINT ( 'NONE',  ( 19.05000000000000071, 0.0000000000000000000, 0.1399082784604409879 ) ) ;
#26 = CARTESIAN_POINT ( 'NONE',  ( 19.04999999999999716, -19.04999999999999716, 3.999999999999997335 ) ) ;
#27 =( GEOMETRIC_REPRESENTATION_CONTEXT ( 3 ) GLOBAL_UNCERTAINTY_ASSIGNED_CONTEXT ( ( #127 ) ) GLOBAL_UNIT_ASSIGNED_CONTEXT ( ( #158, #169, #87 ) ) REPRESENTATION_CONTEXT ( 'NONE', 'WORKASPACE' ) );
#28 = CC_DESIGN_APPROVAL ( #32, ( #103 ) ) ;
#29 = CALENDAR_DATE ( 2019, 1, 10 ) ;
#30 = EDGE_CURVE ( 'NONE', #107, #139, #97, .T. ) ;
#31 = PERSON_AND_ORGANIZATION ( #76, #162 ) ;
#32 = APPROVAL ( #58, 'UNSPECIFIED' ) ;
#33 = APPROVAL_ROLE ( '' ) ;
#34 = CC_DESIGN_SECURITY_CLASSIFICATION ( #144, ( #39 ) ) ;
#35 = ORIENTED_EDGE ( 'NONE', *, *, #30, .F. ) ;
#36 = DIRECTION ( 'NONE',  ( 1.456985596620939936E-18, -1.154807023645919793E-33, 1.000000000000000000 ) ) ;
#37 = COORDINATED_UNIVERSAL_TIME_OFFSET ( 2, 0, .AHEAD. ) ;
#38 = EDGE_LOOP ( 'NONE', ( #22, #67 ) ) ;
#39 = PRODUCT_DEFINITION_FORMATION_WITH_SPECIFIED_SOURCE ( 'ANY', '', #65, .NOT_KNOWN. ) ;
#40 = AXIS2_PLACEMENT_3D ( 'NONE', #74, #161, #146 ) ;
#41 = ORIENTED_EDGE ( 'NONE', *, *, #82, .F. ) ;
#42 = CC_DESIGN_PERSON_AND_ORGANIZATION_ASSIGNMENT ( #124, #15, ( #39 ) ) ;
#43 = FACE_OUTER_BOUND ( 'NONE', #21, .T. ) ;
#44 = PERSON_AND_ORGANIZATION_ROLE ( 'design_owner' ) ;
#45 = CARTESIAN_POINT ( 'NONE',  ( -19.04999999999980176, 19.04999999999999716, 3.999999999999997335 ) ) ;
#46 = APPROVAL_PERSON_ORGANIZATION ( #2, #106, #167 ) ;
#47 = ADVANCED_FACE ( 'NONE', ( #102 ), #59, .T. ) ;
#48 = CARTESIAN_POINT ( 'NONE',  ( 19.05000000000000071, 0.0000000000000000000, 0.1399082784604409879 ) ) ;
#49 = CARTESIAN_POINT ( 'NONE',  ( 19.05000000000000071, 0.0000000000000000000, 4.000000000000000000 ) ) ;
#50 = PERSON_AND_ORGANIZATION_ROLE ( 'creator' ) ;
#51 = COORDINATED_UNIVERSAL_TIME_OFFSET ( 2, 0, .AHEAD. ) ;
#52 = AXIS2_PLACEMENT_3D ( 'NONE', #54, #6, #140 ) ;
#53 = DESIGN_CONTEXT ( 'detailed design', #130, 'design' ) ;
#54 = CARTESIAN_POINT ( 'NONE',  ( 0.0000000000000000000, 0.0000000000000000000, 0.0000000000000000000 ) ) ;
#55 = EDGE_CURVE ( 'NONE', #139, #107, #75, .T. ) ;
#56 = ORIENTED_EDGE ( 'NONE', *, *, #55, .F. ) ;
#57 = CARTESIAN_POINT ( 'NONE',  ( 1.166476076187850077E-15, 19.05000000000000071, 0.1399082784604409879 ) ) ;
#58 = APPROVAL_STATUS ( 'not_yet_approved' ) ;
#59 = CYLINDRICAL_SURFACE ( 'NONE', #165, 19.05000000000000071 ) ;
#60 = DIRECTION ( 'NONE',  ( 1.456985596620939936E-18, -1.154807023645919793E-33, 1.000000000000000000 ) ) ;
#61 = VECTOR ( 'NONE', #60, 1000.000000000000000 ) ;
#62 = CARTESIAN_POINT ( 'NONE',  ( 19.05000000000000071, 0.0000000000000000000, 4.000000000000000000 ) ) ;
#63 = APPLICATION_CONTEXT ( 'configuration controlled 3d designs of mechanical parts and assemblies' ) ;
#64 = CC_DESIGN_PERSON_AND_ORGANIZATION_ASSIGNMENT ( #69, #179, ( #39 ) ) ;
#65 = PRODUCT ( '110-0450E BK7 pl-cx 38.1 F2500', '110-0450E BK7 pl-cx 38.1 F2500', '', ( #119 ) ) ;
#66 = DATE_TIME_ROLE ( 'creation_date' ) ;
#67 = ORIENTED_EDGE ( 'NONE', *, *, #113, .T. ) ;
#68 = APPROVAL_PERSON_ORGANIZATION ( #18, #178, #33 ) ;
#69 = PERSON_AND_ORGANIZATION ( #76, #162 ) ;
#70 = EDGE_CURVE ( 'NONE', #107, #117, #159, .T. ) ;
#71 = APPROVAL_ROLE ( '' ) ;
#72 = EDGE_LOOP ( 'NONE', ( #1, #83, #5, #142 ) ) ;
#73 = APPLICATION_PROTOCOL_DEFINITION ( 'international standard', 'config_control_design', 1994, #63 ) ;
#74 = CARTESIAN_POINT ( 'NONE',  ( -2.220446049250309925E-15, 1.509903313490210055E-14, 0.1399082784604409879 ) ) ;
#75 =( BOUNDED_CURVE ( )  B_SPLINE_CURVE ( 2, ( #25, #10, #57, #89, #23 ),
 .UNSPECIFIED., .F., .F. ) 
 B_SPLINE_CURVE_WITH_KNOTS ( ( 3, 2, 3 ),
 ( 0.0000000000000000000, 1.570796326794894116, 3.141592653589778905 ),
 .UNSPECIFIED. ) 
 CURVE ( )  GEOMETRIC_REPRESENTATION_ITEM ( )  RATIONAL_B_SPLINE_CURVE ( ( 1.000000000000000000, 0.7071067811865480168, 1.000000000000000000, 0.7071067811865501263, 0.9999999999999978906 ) ) 
 REPRESENTATION_ITEM ( '' )  );
#76 = PERSON ( 'UNSPECIFIED', 'UNSPECIFIED', 'UNSPECIFIED', ('UNSPECIFIED'), ('UNSPECIFIED'), ('UNSPECIFIED') ) ;
#77 = CARTESIAN_POINT ( 'NONE',  ( 0.0000000000000000000, 39.06599999999999540, 4.000000000000000000 ) ) ;
#78 = CARTESIAN_POINT ( 'NONE',  ( -19.05000000000000071, 2.332952152375710015E-15, 4.000000000000000000 ) ) ;
#79 = CARTESIAN_POINT ( 'NONE',  ( -3.499428228563559698E-15, -19.05000000000000071, 4.000000000000000000 ) ) ;
#80 = ADVANCED_BREP_SHAPE_REPRESENTATION ( '110-0450E BK7 pl-cx 38.1 F2500', ( #176, #52 ), #27 ) ;
#81 = CALENDAR_DATE ( 2019, 1, 10 ) ;
#82 = EDGE_CURVE ( 'NONE', #126, #117, #85, .T. ) ;
#83 = ORIENTED_EDGE ( 'NONE', *, *, #30, .T. ) ;
#84 = EDGE_LOOP ( 'NONE', ( #95, #109, #41, #154 ) ) ;
#85 =( BOUNDED_CURVE ( )  B_SPLINE_CURVE ( 2, ( #110, #24, #112, #45, #164 ),
 .UNSPECIFIED., .F., .T. ) 
 B_SPLINE_CURVE_WITH_KNOTS ( ( 3, 2, 3 ),
 ( 0.0000000000000000000, 1.570796326794894116, 3.141592653589778905 ),
 .UNSPECIFIED. ) 
 CURVE ( )  GEOMETRIC_REPRESENTATION_ITEM ( )  RATIONAL_B_SPLINE_CURVE ( ( 1.000000000000000000, 0.7071067811865480168, 1.000000000000000000, 0.7071067811865501263, 0.9999999999999978906 ) ) 
 REPRESENTATION_ITEM ( '' )  );
#86 = CARTESIAN_POINT ( 'NONE',  ( -19.05000000000019611, -19.04999999999999716, 3.999999999999996447 ) ) ;
#87 =( NAMED_UNIT ( * ) SI_UNIT ( $, .STERADIAN. ) SOLID_ANGLE_UNIT ( ) );
#88 = CARTESIAN_POINT ( 'NONE',  ( -2.220446049250309925E-15, 1.509903313490210055E-14, 0.1399082784604409879 ) ) ;
#89 = CARTESIAN_POINT ( 'NONE',  ( -19.04999999999980176, 19.04999999999999716, 0.1399082784604410434 ) ) ;
#90 = CLOSED_SHELL ( 'NONE', ( #47, #108, #156, #150 ) ) ;
#91 = APPROVAL_PERSON_ORGANIZATION ( #171, #32, #71 ) ;
#92 = CALENDAR_DATE ( 2019, 1, 10 ) ;
#93 = APPROVAL_STATUS ( 'not_yet_approved' ) ;
#94 = DATE_AND_TIME ( #81, #3 ) ;
#95 = ORIENTED_EDGE ( 'NONE', *, *, #55, .T. ) ;
#96 = SHAPE_DEFINITION_REPRESENTATION ( #133, #80 ) ;
#97 =( BOUNDED_CURVE ( )  B_SPLINE_CURVE ( 2, ( #11, #120, #170, #163, #48 ),
 .UNSPECIFIED., .F., .F. ) 
 B_SPLINE_CURVE_WITH_KNOTS ( ( 3, 2, 3 ),
 ( 3.141592653589778461, 4.712388980384684345, 6.283185307179590673 ),
 .UNSPECIFIED. ) 
 CURVE ( )  GEOMETRIC_REPRESENTATION_ITEM ( )  RATIONAL_B_SPLINE_CURVE ( ( 1.000000000000002220, 0.7071067811865459074, 1.000000000000000000, 0.7071067811865480168, 1.000000000000000000 ) ) 
 REPRESENTATION_ITEM ( '' )  );
#98 = DIRECTION ( 'NONE',  ( 0.0000000000000000000, 0.0000000000000000000, 1.000000000000000000 ) ) ;
#99 = DIRECTION ( 'NONE',  ( 3.622958475672859880E-16, 3.423972319584137653E-16, -1.000000000000000000 ) ) ;
#100 = PERSON_AND_ORGANIZATION ( #76, #162 ) ;
#101 = FACE_OUTER_BOUND ( 'NONE', #72, .T. ) ;
#102 = FACE_OUTER_BOUND ( 'NONE', #84, .T. ) ;
#103 = PRODUCT_DEFINITION ( 'UNKNOWN', '', #39, #53 ) ;
#104 = CALENDAR_DATE ( 2019, 1, 10 ) ;
#105 = PERSON_AND_ORGANIZATION_ROLE ( 'classification_officer' ) ;
#106 = APPROVAL ( #93, 'UNSPECIFIED' ) ;
#107 = VERTEX_POINT ( 'NONE', #143 ) ;
#108 = ADVANCED_FACE ( 'NONE', ( #43 ), #121, .T. ) ;
#109 = ORIENTED_EDGE ( 'NONE', *, *, #70, .T. ) ;
#110 = CARTESIAN_POINT ( 'NONE',  ( 19.05000000000000071, 0.0000000000000000000, 4.000000000000000000 ) ) ;
#111 = DATE_AND_TIME ( #134, #118 ) ;
#112 = CARTESIAN_POINT ( 'NONE',  ( 1.166476076187850077E-15, 19.05000000000000071, 4.000000000000000000 ) ) ;
#113 = EDGE_CURVE ( 'NONE', #117, #126, #14, .T. ) ;
#114 = LOCAL_TIME ( 10, 17, 55.00000000000000000, #51 ) ;
#115 = DATE_AND_TIME ( #92, #8 ) ;
#116 = APPROVAL_DATE_TIME ( #94, #178 ) ;
#117 = VERTEX_POINT ( 'NONE', #174 ) ;
#118 = LOCAL_TIME ( 10, 17, 55.00000000000000000, #168 ) ;
#119 = MECHANICAL_CONTEXT ( 'NONE', #63, 'mechanical' ) ;
#120 = CARTESIAN_POINT ( 'NONE',  ( -19.05000000000019611, -19.04999999999999716, 0.1399082784604409879 ) ) ;
#121 = SPHERICAL_SURFACE ( 'NONE', #129, 1297.000000000000000 ) ;
#122 = CYLINDRICAL_SURFACE ( 'NONE', #40, 19.05000000000000071 ) ;
#123 = LOCAL_TIME ( 10, 17, 55.00000000000000000, #16 ) ;
#124 = PERSON_AND_ORGANIZATION ( #76, #162 ) ;
#125 = DATE_TIME_ROLE ( 'classification_date' ) ;
#126 = VERTEX_POINT ( 'NONE', #49 ) ;
#127 = UNCERTAINTY_MEASURE_WITH_UNIT (LENGTH_MEASURE( 1.000000000000000082E-05 ), #158, 'distance_accuracy_value', 'NONE');
#128 = SECURITY_CLASSIFICATION_LEVEL ( 'unclassified' ) ;
#129 = AXIS2_PLACEMENT_3D ( 'NONE', #135, #99, #12 ) ;
#130 = APPLICATION_CONTEXT ( 'configuration controlled 3d designs of mechanical parts and assemblies' ) ;
#131 = CC_DESIGN_PERSON_AND_ORGANIZATION_ASSIGNMENT ( #145, #50, ( #103 ) ) ;
#132 = FACE_OUTER_BOUND ( 'NONE', #38, .T. ) ;
#133 = PRODUCT_DEFINITION_SHAPE ( 'NONE', 'NONE',  #103 ) ;
#134 = CALENDAR_DATE ( 2019, 1, 10 ) ;
#135 = CARTESIAN_POINT ( 'NONE',  ( 2.273736754432320090E-13, 7.958078640513120062E-13, 1297.000000000000000 ) ) ;
#136 = DIRECTION ( 'NONE',  ( 1.456985596620939936E-18, -1.154807023645919964E-33, 1.000000000000000000 ) ) ;
#137 = VECTOR ( 'NONE', #36, 1000.000000000000000 ) ;
#138 = CC_DESIGN_APPROVAL ( #106, ( #39 ) ) ;
#139 = VERTEX_POINT ( 'NONE', #172 ) ;
#140 = DIRECTION ( 'NONE',  ( 1.000000000000000000, 0.0000000000000000000, 0.0000000000000000000 ) ) ;
#141 = CC_DESIGN_DATE_AND_TIME_ASSIGNMENT ( #166, #66, ( #103 ) ) ;
#142 = ORIENTED_EDGE ( 'NONE', *, *, #113, .F. ) ;
#143 = CARTESIAN_POINT ( 'NONE',  ( -19.05000000000000071, 2.332952152375710015E-15, 0.1399082784604409879 ) ) ;
#144 = SECURITY_CLASSIFICATION ( '', '', #128 ) ;
#145 = PERSON_AND_ORGANIZATION ( #76, #162 ) ;
#146 = DIRECTION ( 'NONE',  ( 1.000000000000000000, -7.926001645617909926E-16, -1.422837496700137093E-18 ) ) ;
#147 = DIRECTION ( 'NONE',  ( 1.000000000000000000, -7.926001645617909926E-16, -1.422837496700137093E-18 ) ) ;
#148 = CARTESIAN_POINT ( 'NONE',  ( -19.05000000000000426, 3.253101842217992334E-14, 0.1399082784604410157 ) ) ;
#149 = PRODUCT_RELATED_PRODUCT_CATEGORY ( 'detail', '', ( #65 ) ) ;
#150 = ADVANCED_FACE ( 'NONE', ( #101 ), #122, .T. ) ;
#151 = CC_DESIGN_APPROVAL ( #178, ( #144 ) ) ;
#152 = APPROVAL_STATUS ( 'not_yet_approved' ) ;
#153 = LINE ( 'NONE', #7, #137 ) ;
#154 = ORIENTED_EDGE ( 'NONE', *, *, #19, .F. ) ;
#155 = DIRECTION ( 'NONE',  ( 1.000000000000000000, 0.0000000000000000000, 0.0000000000000000000 ) ) ;
#156 = ADVANCED_FACE ( 'NONE', ( #132 ), #173, .T. ) ;
#157 = CC_DESIGN_PERSON_AND_ORGANIZATION_ASSIGNMENT ( #31, #105, ( #144 ) ) ;
#158 =( LENGTH_UNIT ( ) NAMED_UNIT ( * ) SI_UNIT ( .MILLI., .METRE. ) );
#159 = LINE ( 'NONE', #148, #61 ) ;
#160 = APPROVAL_DATE_TIME ( #111, #32 ) ;
#161 = DIRECTION ( 'NONE',  ( 1.456985596620939936E-18, -1.154807023645919964E-33, 1.000000000000000000 ) ) ;
#162 = ORGANIZATION ( 'UNSPECIFIED', 'UNSPECIFIED', '' ) ;
#163 = CARTESIAN_POINT ( 'NONE',  ( 19.04999999999999716, -19.04999999999999716, 0.1399082784604410157 ) ) ;
#164 = CARTESIAN_POINT ( 'NONE',  ( -19.05000000000000071, 2.332952152375710015E-15, 4.000000000000000000 ) ) ;
#165 = AXIS2_PLACEMENT_3D ( 'NONE', #88, #136, #147 ) ;
#166 = DATE_AND_TIME ( #104, #123 ) ;
#167 = APPROVAL_ROLE ( '' ) ;
#168 = COORDINATED_UNIVERSAL_TIME_OFFSET ( 2, 0, .AHEAD. ) ;
#169 =( NAMED_UNIT ( * ) PLANE_ANGLE_UNIT ( ) SI_UNIT ( $, .RADIAN. ) );
#170 = CARTESIAN_POINT ( 'NONE',  ( -3.499428228563559698E-15, -19.05000000000000071, 0.1399082784604409879 ) ) ;
#171 = PERSON_AND_ORGANIZATION ( #76, #162 ) ;
#172 = CARTESIAN_POINT ( 'NONE',  ( 19.05000000000000071, 0.0000000000000000000, 0.1399082784604409879 ) ) ;
#173 = PLANE ( 'NONE',  #13 ) ;
#174 = CARTESIAN_POINT ( 'NONE',  ( -19.05000000000000071, 2.332952152375710015E-15, 4.000000000000000000 ) ) ;
#175 = CC_DESIGN_DATE_AND_TIME_ASSIGNMENT ( #115, #125, ( #144 ) ) ;
#176 = MANIFOLD_SOLID_BREP ( '110-0450E.STP', #90 ) ;
#177 = APPROVAL_DATE_TIME ( #20, #106 ) ;
#178 = APPROVAL ( #152, 'UNSPECIFIED' ) ;
#179 = PERSON_AND_ORGANIZATION_ROLE ( 'creator' ) ;
ENDSEC;
END-ISO-10303-21;
