ISO-10303-21;
HEADER;
FILE_DESCRIPTION (( 'STEP AP203' ),
    '1' );
FILE_NAME ('110-0435E BK7 pl-cx 38.1 F700.STEP',
    '2018-12-21T06:55:18',
    ( '' ),
    ( '' ),
    'SwSTEP 2.0',
    'SolidWorks 2017',
    '' );
FILE_SCHEMA (( 'CONFIG_CONTROL_DESIGN' ));
ENDSEC;

DATA;
#1 = EDGE_CURVE ( 'NONE', #213, #189, #233, .T. ) ;
#2 = PLANE ( 'NONE',  #54 ) ;
#3 = CC_DESIGN_PERSON_AND_ORGANIZATION_ASSIGNMENT ( #47, #52, ( #12 ) ) ;
#4 = EDGE_LOOP ( 'NONE', ( #24, #167, #194 ) ) ;
#5 = ADVANCED_FACE ( 'NONE', ( #174 ), #119, .T. ) ;
#6 = CARTESIAN_POINT ( 'NONE',  ( 19.13716345738580000, -19.27838622931855600, 1.017519342348606900 ) ) ;
#7 = CARTESIAN_POINT ( 'NONE',  ( 12.78734099352058000, -6.432177024359007500, -0.002059877230532031300 ) ) ;
#8 = CARTESIAN_POINT ( 'NONE',  ( -19.17321274801174600, -6.432177024359006600, 0.3354529219571554300 ) ) ;
#9 = CARTESIAN_POINT ( 'NONE',  ( -1.457167719820518000E-013, 19.27838622931856700, 0.5121433026290190800 ) ) ;
#10 = CC_DESIGN_SECURITY_CLASSIFICATION ( #72, ( #12 ) ) ;
#11 = MECHANICAL_CONTEXT ( 'NONE', #31, 'mechanical' ) ;
#12 = PRODUCT_DEFINITION_FORMATION_WITH_SPECIFIED_SOURCE ( 'ANY', '', #131, .NOT_KNOWN. ) ;
#13 = APPROVAL_STATUS ( 'not_yet_approved' ) ;
#14 = FACE_OUTER_BOUND ( 'NONE', #133, .T. ) ;
#15 = EDGE_CURVE ( 'NONE', #189, #160, #182, .T. ) ;
#16 = SHAPE_DEFINITION_REPRESENTATION ( #184, #234 ) ;
#17 = EDGE_LOOP ( 'NONE', ( #229, #28, #51, #152, #71 ) ) ;
#18 = CARTESIAN_POINT ( 'NONE',  ( 0.0000000000000000000, 39.06600000000000300, 4.000000000000000000 ) ) ;
#19 = CALENDAR_DATE ( 2018, 21, 12 ) ;
#20 = CIRCLE ( 'NONE', #208, 19.05000000000000100 ) ;
#21 = CARTESIAN_POINT ( 'NONE',  ( -4.662936703425659800E-015, -8.881784197001250400E-016, 0.5000723938296219900 ) ) ;
#22 = ORGANIZATION ( 'UNSPECIFIED', 'UNSPECIFIED', '' ) ;
#23 = APPROVAL ( #13, 'UNSPECIFIED' ) ;
#24 = ORIENTED_EDGE ( 'NONE', *, *, #15, .F. ) ;
#25 = CARTESIAN_POINT ( 'NONE',  ( 19.17321274801183200, -6.432177024359006600, 0.3354529219572018300 ) ) ;
#26 = EDGE_CURVE ( 'NONE', #189, #43, #128, .T. ) ;
#27 = AXIS2_PLACEMENT_3D ( 'NONE', #162, #73, #195 ) ;
#28 = ORIENTED_EDGE ( 'NONE', *, *, #78, .T. ) ;
#29 = APPLICATION_CONTEXT ( 'configuration controlled 3d designs of mechanical parts and assemblies' ) ;
#30 =( BOUNDED_SURFACE ( )  B_SPLINE_SURFACE ( 3, 3, ( 
 ( #165, #137, #99, #6 ),
 ( #79, #168, #7, #25 ),
 ( #97, #101, #115, #60 ),
 ( #169, #80, #113, #183 ) ),
 .UNSPECIFIED., .F., .F., .F. ) 
 B_SPLINE_SURFACE_WITH_KNOTS ( ( 4, 4 ),
 ( 4, 4 ),
 ( 0.0000000000000000000, 1.000000000000000000 ),
 ( 0.0000000000000000000, 1.000000000000000000 ),
 .UNSPECIFIED. ) 
 GEOMETRIC_REPRESENTATION_ITEM ( )  RATIONAL_B_SPLINE_SURFACE ( (
 ( 1.000000000000000000, 0.9997676590144949400, 0.9997676590144949400, 1.000000000000000000),
 ( 0.9990596836452234600, 0.9988275611337469300, 0.9988275611337469300, 0.9990596836452234600),
 ( 0.9990596836452234600, 0.9988275611337469300, 0.9988275611337469300, 0.9990596836452234600),
 ( 1.000000000000000000, 0.9997676590144949400, 0.9997676590144949400, 1.000000000000000000) ) ) 
 REPRESENTATION_ITEM ( '' )  SURFACE ( )  );
#31 = APPLICATION_CONTEXT ( 'configuration controlled 3d designs of mechanical parts and assemblies' ) ;
#32 = COORDINATED_UNIVERSAL_TIME_OFFSET ( 2, 0, .AHEAD. ) ;
#33 =( LENGTH_UNIT ( ) NAMED_UNIT ( * ) SI_UNIT ( .MILLI., .METRE. ) );
#34 = PERSON_AND_ORGANIZATION ( #211, #22 ) ;
#35 = PRODUCT_DEFINITION ( 'UNKNOWN', '', #12, #92 ) ;
#36 = DATE_AND_TIME ( #91, #193 ) ;
#37 = ORIENTED_EDGE ( 'NONE', *, *, #122, .T. ) ;
#38 = CC_DESIGN_DATE_AND_TIME_ASSIGNMENT ( #166, #81, ( #72 ) ) ;
#39 = LOCAL_TIME ( 8, 55, 18.00000000000000000, #212 ) ;
#40 = AXIS2_PLACEMENT_3D ( 'NONE', #63, #200, #116 ) ;
#41 = DIRECTION ( 'NONE',  ( 1.000000000000000000, 0.0000000000000000000, 0.0000000000000000000 ) ) ;
#42 = APPROVAL_PERSON_ORGANIZATION ( #142, #100, #205 ) ;
#43 = VERTEX_POINT ( 'NONE', #180 ) ;
#44 = ADVANCED_FACE ( 'NONE', ( #14 ), #2, .T. ) ;
#45 = EDGE_CURVE ( 'NONE', #58, #89, #69, .T. ) ;
#46 = DIRECTION ( 'NONE',  ( 1.000000000000000000, 0.0000000000000000000, 0.0000000000000000000 ) ) ;
#47 = PERSON_AND_ORGANIZATION ( #211, #22 ) ;
#48 = CARTESIAN_POINT ( 'NONE',  ( 19.04999999999999700, -8.881784197001250400E-016, 4.000000000000000000 ) ) ;
#49 = CC_DESIGN_PERSON_AND_ORGANIZATION_ASSIGNMENT ( #228, #155, ( #35 ) ) ;
#50 = APPROVAL_STATUS ( 'not_yet_approved' ) ;
#51 = ORIENTED_EDGE ( 'NONE', *, *, #132, .T. ) ;
#52 = PERSON_AND_ORGANIZATION_ROLE ( 'design_supplier' ) ;
#53 = ORIENTED_EDGE ( 'NONE', *, *, #132, .F. ) ;
#54 = AXIS2_PLACEMENT_3D ( 'NONE', #18, #138, #75 ) ;
#55 = LINE ( 'NONE', #218, #161 ) ;
#56 = CARTESIAN_POINT ( 'NONE',  ( -5.684341886080800200E-014, 2.842170943040400100E-014, 363.1000000000000200 ) ) ;
#57 = PRODUCT_RELATED_PRODUCT_CATEGORY ( 'detail', '', ( #131 ) ) ;
#58 = VERTEX_POINT ( 'NONE', #48 ) ;
#59 = ADVANCED_FACE ( 'NONE', ( #107 ), #30, .T. ) ;
#60 = CARTESIAN_POINT ( 'NONE',  ( 19.17321274801183200, 6.432177024359017300, 0.3354529219572033300 ) ) ;
#61 = CIRCLE ( 'NONE', #68, 19.05000000000000100 ) ;
#62 = CARTESIAN_POINT ( 'NONE',  ( -12.76329835768964900, -19.27838622931854900, 0.6806411314871544400 ) ) ;
#63 = CARTESIAN_POINT ( 'NONE',  ( -4.662936703425659800E-015, -8.881784197001250400E-016, 4.000000000000000000 ) ) ;
#64 = COORDINATED_UNIVERSAL_TIME_OFFSET ( 2, 0, .AHEAD. ) ;
#65 = VECTOR ( 'NONE', #156, 1000.000000000000000 ) ;
#66 = APPROVAL_ROLE ( '' ) ;
#67 =( NAMED_UNIT ( * ) PLANE_ANGLE_UNIT ( ) SI_UNIT ( $, .RADIAN. ) );
#68 = AXIS2_PLACEMENT_3D ( 'NONE', #134, #198, #46 ) ;
#69 = CIRCLE ( 'NONE', #40, 19.05000000000000100 ) ;
#70 = PERSON_AND_ORGANIZATION ( #211, #22 ) ;
#71 = ORIENTED_EDGE ( 'NONE', *, *, #122, .F. ) ;
#72 = SECURITY_CLASSIFICATION ( '', '', #227 ) ;
#73 = DIRECTION ( 'NONE',  ( -0.0000000000000000000, -0.0000000000000000000, -1.000000000000000000 ) ) ;
#74 =( GEOMETRIC_REPRESENTATION_CONTEXT ( 3 ) GLOBAL_UNCERTAINTY_ASSIGNED_CONTEXT ( ( #111 ) ) GLOBAL_UNIT_ASSIGNED_CONTEXT ( ( #33, #67, #175 ) ) REPRESENTATION_CONTEXT ( 'NONE', 'WORKASPACE' ) );
#75 = DIRECTION ( 'NONE',  ( 1.000000000000000000, 0.0000000000000000000, -0.0000000000000000000 ) ) ;
#76 = PERSON_AND_ORGANIZATION ( #211, #22 ) ;
#77 = CIRCLE ( 'NONE', #186, 19.05000000000000100 ) ;
#78 = EDGE_CURVE ( 'NONE', #43, #89, #55, .T. ) ;
#79 = CARTESIAN_POINT ( 'NONE',  ( -5.684341886080799600E-014, -6.432177024359006600, -0.1708751108710406800 ) ) ;
#80 = CARTESIAN_POINT ( 'NONE',  ( 6.382761411652262000, 19.27838622931856000, 0.5121433026290533900 ) ) ;
#81 = DATE_TIME_ROLE ( 'classification_date' ) ;
#82 = CARTESIAN_POINT ( 'NONE',  ( -4.662936703425659800E-015, -8.881784197001250400E-016, 0.5000723938296219900 ) ) ;
#83 = COORDINATED_UNIVERSAL_TIME_OFFSET ( 2, 0, .AHEAD. ) ;
#84 = CARTESIAN_POINT ( 'NONE',  ( 0.0000000000000000000, 0.0000000000000000000, 0.0000000000000000000 ) ) ;
#85 = ORIENTED_EDGE ( 'NONE', *, *, #1, .T. ) ;
#86 = DIRECTION ( 'NONE',  ( 1.000000000000000000, 0.0000000000000000000, 0.0000000000000000000 ) ) ;
#87 = DATE_AND_TIME ( #232, #173 ) ;
#88 = CALENDAR_DATE ( 2018, 21, 12 ) ;
#89 = VERTEX_POINT ( 'NONE', #151 ) ;
#90 = ADVANCED_FACE ( 'NONE', ( #203 ), #190, .T. ) ;
#91 = CALENDAR_DATE ( 2018, 21, 12 ) ;
#92 = DESIGN_CONTEXT ( 'detailed design', #29, 'design' ) ;
#93 = CARTESIAN_POINT ( 'NONE',  ( -4.662936703425659800E-015, -8.881784197001250400E-016, 0.5000723938296219900 ) ) ;
#94 = CC_DESIGN_PERSON_AND_ORGANIZATION_ASSIGNMENT ( #70, #204, ( #12 ) ) ;
#95 = DIRECTION ( 'NONE',  ( -0.0000000000000000000, -0.0000000000000000000, -1.000000000000000000 ) ) ;
#96 = ORIENTED_EDGE ( 'NONE', *, *, #1, .F. ) ;
#97 = CARTESIAN_POINT ( 'NONE',  ( -5.684341886080799600E-014, 6.432177024359017300, -0.1708751108710391500 ) ) ;
#98 = CARTESIAN_POINT ( 'NONE',  ( -12.78734099352058900, -6.432177024359007500, -0.002059877230569924200 ) ) ;
#99 = CARTESIAN_POINT ( 'NONE',  ( 12.76329835768964200, -19.27838622931854900, 0.6806411314871920700 ) ) ;
#100 = APPROVAL ( #230, 'UNSPECIFIED' ) ;
#101 = CARTESIAN_POINT ( 'NONE',  ( 6.394784824716464500, 6.432177024359017300, -0.1708751108710391500 ) ) ;
#102 = CARTESIAN_POINT ( 'NONE',  ( -4.662936703425659800E-015, -8.881784197001250400E-016, 4.000000000000000000 ) ) ;
#103 = DIRECTION ( 'NONE',  ( 0.0000000000000000000, 0.0000000000000000000, 1.000000000000000000 ) ) ;
#104 = CLOSED_SHELL ( 'NONE', ( #59, #129, #90, #5, #44 ) ) ;
#105 = APPROVAL_DATE_TIME ( #146, #100 ) ;
#106 = EDGE_CURVE ( 'NONE', #43, #160, #61, .T. ) ;
#107 = FACE_OUTER_BOUND ( 'NONE', #199, .T. ) ;
#108 = APPROVAL_PERSON_ORGANIZATION ( #159, #235, #66 ) ;
#109 = LINE ( 'NONE', #231, #65 ) ;
#110 = DIRECTION ( 'NONE',  ( 1.000000000000000000, 0.0000000000000000000, 0.0000000000000000000 ) ) ;
#111 = UNCERTAINTY_MEASURE_WITH_UNIT (LENGTH_MEASURE( 1.000000000000000100E-005 ), #33, 'distance_accuracy_value', 'NONE');
#112 = CARTESIAN_POINT ( 'NONE',  ( -6.394784824716570200, 6.432177024359017300, -0.1708751108710719100 ) ) ;
#113 = CARTESIAN_POINT ( 'NONE',  ( 12.76329835768964200, 19.27838622931856000, 0.6806411314871920700 ) ) ;
#114 = ORIENTED_EDGE ( 'NONE', *, *, #78, .F. ) ;
#115 = CARTESIAN_POINT ( 'NONE',  ( 12.78734099352058000, 6.432177024359017300, -0.002059877230530513000 ) ) ;
#116 = DIRECTION ( 'NONE',  ( 1.000000000000000000, 0.0000000000000000000, 0.0000000000000000000 ) ) ;
#117 = CARTESIAN_POINT ( 'NONE',  ( -1.457167719820518000E-013, 6.432177024359017300, -0.1708751108710735400 ) ) ;
#118 = PERSON_AND_ORGANIZATION ( #211, #22 ) ;
#119 = CYLINDRICAL_SURFACE ( 'NONE', #145, 19.05000000000000100 ) ;
#120 = CARTESIAN_POINT ( 'NONE',  ( 19.04999999999999700, -8.881784197001250400E-016, 0.5000723938296219900 ) ) ;
#121 = DIRECTION ( 'NONE',  ( 1.000000000000000000, 0.0000000000000000000, 0.0000000000000000000 ) ) ;
#122 = EDGE_CURVE ( 'NONE', #160, #213, #77, .T. ) ;
#123 = DATE_TIME_ROLE ( 'creation_date' ) ;
#124 = LOCAL_TIME ( 8, 55, 18.00000000000000000, #179 ) ;
#125 = EDGE_LOOP ( 'NONE', ( #114, #207, #96, #178, #163 ) ) ;
#126 = APPLICATION_PROTOCOL_DEFINITION ( 'international standard', 'config_control_design', 1994, #31 ) ;
#127 = APPROVAL_DATE_TIME ( #36, #23 ) ;
#128 = CIRCLE ( 'NONE', #27, 19.05000000000000100 ) ;
#129 = ADVANCED_FACE ( 'NONE', ( #191 ), #219, .T. ) ;
#130 = CC_DESIGN_PERSON_AND_ORGANIZATION_ASSIGNMENT ( #76, #144, ( #72 ) ) ;
#131 = PRODUCT ( '110-0435E BK7 pl-cx 38.1 F700', '110-0435E BK7 pl-cx 38.1 F700', '', ( #11 ) ) ;
#132 = EDGE_CURVE ( 'NONE', #89, #58, #20, .T. ) ;
#133 = EDGE_LOOP ( 'NONE', ( #157, #53 ) ) ;
#134 = CARTESIAN_POINT ( 'NONE',  ( -4.662936703425659800E-015, -8.881784197001250400E-016, 0.5000723938296219900 ) ) ;
#135 = CARTESIAN_POINT ( 'NONE',  ( -12.78734099352058900, 6.432177024359017300, -0.002059877230568298700 ) ) ;
#136 = MANIFOLD_SOLID_BREP ( 'Imported1', #104 ) ;
#137 = CARTESIAN_POINT ( 'NONE',  ( 6.382761411652262000, -19.27838622931854900, 0.5121433026290533900 ) ) ;
#138 = DIRECTION ( 'NONE',  ( 0.0000000000000000000, 0.0000000000000000000, 1.000000000000000000 ) ) ;
#139 = DATE_AND_TIME ( #19, #124 ) ;
#140 = APPLICATION_PROTOCOL_DEFINITION ( 'international standard', 'config_control_design', 1994, #29 ) ;
#141 = AXIS2_PLACEMENT_3D ( 'NONE', #21, #153, #170 ) ;
#142 = PERSON_AND_ORGANIZATION ( #211, #22 ) ;
#143 = CARTESIAN_POINT ( 'NONE',  ( -5.684341886080800200E-014, -19.04999999999978000, 0.5000723938296100000 ) ) ;
#144 = PERSON_AND_ORGANIZATION_ROLE ( 'classification_officer' ) ;
#145 = AXIS2_PLACEMENT_3D ( 'NONE', #93, #217, #110 ) ;
#146 = DATE_AND_TIME ( #88, #196 ) ;
#147 = CC_DESIGN_APPROVAL ( #100, ( #35 ) ) ;
#148 = CALENDAR_DATE ( 2018, 21, 12 ) ;
#149 = CARTESIAN_POINT ( 'NONE',  ( -4.662936703425659800E-015, -8.881784197001250400E-016, 0.5000723938296219900 ) ) ;
#150 = CARTESIAN_POINT ( 'NONE',  ( -12.76329835768964900, 19.27838622931856000, 0.6806411314871544400 ) ) ;
#151 = CARTESIAN_POINT ( 'NONE',  ( -19.05000000000000400, 1.444773732675583000E-015, 4.000000000000000000 ) ) ;
#152 = ORIENTED_EDGE ( 'NONE', *, *, #224, .F. ) ;
#153 = DIRECTION ( 'NONE',  ( 0.0000000000000000000, 0.0000000000000000000, 1.000000000000000000 ) ) ;
#154 = CARTESIAN_POINT ( 'NONE',  ( -6.394784824716570200, -6.432177024359007500, -0.1708751108710735200 ) ) ;
#155 = PERSON_AND_ORGANIZATION_ROLE ( 'creator' ) ;
#156 = DIRECTION ( 'NONE',  ( 0.0000000000000000000, 0.0000000000000000000, 1.000000000000000000 ) ) ;
#157 = ORIENTED_EDGE ( 'NONE', *, *, #45, .F. ) ;
#158 = CC_DESIGN_DATE_AND_TIME_ASSIGNMENT ( #87, #123, ( #35 ) ) ;
#159 = PERSON_AND_ORGANIZATION ( #211, #22 ) ;
#160 = VERTEX_POINT ( 'NONE', #225 ) ;
#161 = VECTOR ( 'NONE', #201, 1000.000000000000000 ) ;
#162 = CARTESIAN_POINT ( 'NONE',  ( -4.662936703425659800E-015, -8.881784197001250400E-016, 0.5000723938296219900 ) ) ;
#163 = ORIENTED_EDGE ( 'NONE', *, *, #45, .T. ) ;
#164 = AXIS2_PLACEMENT_3D ( 'NONE', #149, #95, #216 ) ;
#165 = CARTESIAN_POINT ( 'NONE',  ( -5.684341886080800200E-014, -19.27838622931855600, 0.5121433026290533900 ) ) ;
#166 = DATE_AND_TIME ( #148, #39 ) ;
#167 = ORIENTED_EDGE ( 'NONE', *, *, #26, .T. ) ;
#168 = CARTESIAN_POINT ( 'NONE',  ( 6.394784824716464500, -6.432177024359007500, -0.1708751108710406800 ) ) ;
#169 = CARTESIAN_POINT ( 'NONE',  ( -5.684341886080800200E-014, 19.27838622931856700, 0.5121433026290533900 ) ) ;
#170 = DIRECTION ( 'NONE',  ( 1.000000000000000000, 0.0000000000000000000, 0.0000000000000000000 ) ) ;
#171 = CARTESIAN_POINT ( 'NONE',  ( -6.382761411652370300, -19.27838622931854900, 0.5121433026290207500 ) ) ;
#172 = PERSON_AND_ORGANIZATION_ROLE ( 'design_owner' ) ;
#173 = LOCAL_TIME ( 8, 55, 18.00000000000000000, #32 ) ;
#174 = FACE_OUTER_BOUND ( 'NONE', #125, .T. ) ;
#175 =( NAMED_UNIT ( * ) SI_UNIT ( $, .STERADIAN. ) SOLID_ANGLE_UNIT ( ) );
#176 = DIRECTION ( 'NONE',  ( 1.000000000000000000, 8.881784197001252300E-016, 0.0000000000000000000 ) ) ;
#177 = APPROVAL_PERSON_ORGANIZATION ( #118, #23, #206 ) ;
#178 = ORIENTED_EDGE ( 'NONE', *, *, #224, .T. ) ;
#179 = COORDINATED_UNIVERSAL_TIME_OFFSET ( 2, 0, .AHEAD. ) ;
#180 = CARTESIAN_POINT ( 'NONE',  ( -19.05000000000000400, 1.444773732675583000E-015, 0.5000723938296219900 ) ) ;
#181 = AXIS2_PLACEMENT_3D ( 'NONE', #84, #103, #86 ) ;
#182 = CIRCLE ( 'NONE', #197, 363.1000000000000200 ) ;
#183 = CARTESIAN_POINT ( 'NONE',  ( 19.13716345738580000, 19.27838622931856700, 1.017519342348606900 ) ) ;
#184 = PRODUCT_DEFINITION_SHAPE ( 'NONE', 'NONE',  #35 ) ;
#185 = CARTESIAN_POINT ( 'NONE',  ( -19.13716345738571100, 19.27838622931856700, 1.017519342348560700 ) ) ;
#186 = AXIS2_PLACEMENT_3D ( 'NONE', #82, #226, #176 ) ;
#187 = CARTESIAN_POINT ( 'NONE',  ( -1.457167719820518000E-013, -6.432177024359006600, -0.1708751108710751800 ) ) ;
#188 = DIRECTION ( 'NONE',  ( -0.0000000000000000000, -0.0000000000000000000, -1.000000000000000000 ) ) ;
#189 = VERTEX_POINT ( 'NONE', #143 ) ;
#190 =( BOUNDED_SURFACE ( )  B_SPLINE_SURFACE ( 3, 3, ( 
 ( #223, #62, #171, #221 ),
 ( #8, #98, #154, #187 ),
 ( #220, #135, #112, #117 ),
 ( #185, #150, #202, #9 ) ),
 .UNSPECIFIED., .F., .F., .F. ) 
 B_SPLINE_SURFACE_WITH_KNOTS ( ( 4, 4 ),
 ( 4, 4 ),
 ( 0.0000000000000000000, 1.000000000000000000 ),
 ( 0.0000000000000000000, 1.000000000000000000 ),
 .UNSPECIFIED. ) 
 GEOMETRIC_REPRESENTATION_ITEM ( )  RATIONAL_B_SPLINE_SURFACE ( (
 ( 1.000000000000000000, 0.9997676590144949400, 0.9997676590144949400, 1.000000000000000000),
 ( 0.9990596836452234600, 0.9988275611337469300, 0.9988275611337469300, 0.9990596836452234600),
 ( 0.9990596836452234600, 0.9988275611337469300, 0.9988275611337469300, 0.9990596836452234600),
 ( 1.000000000000000000, 0.9997676590144949400, 0.9997676590144949400, 1.000000000000000000) ) ) 
 REPRESENTATION_ITEM ( '' )  SURFACE ( )  );
#191 = FACE_OUTER_BOUND ( 'NONE', #17, .T. ) ;
#192 = CC_DESIGN_PERSON_AND_ORGANIZATION_ASSIGNMENT ( #34, #172, ( #131 ) ) ;
#193 = LOCAL_TIME ( 8, 55, 18.00000000000000000, #83 ) ;
#194 = ORIENTED_EDGE ( 'NONE', *, *, #106, .T. ) ;
#195 = DIRECTION ( 'NONE',  ( 1.000000000000000000, 8.881784197001252300E-016, 0.0000000000000000000 ) ) ;
#196 = LOCAL_TIME ( 8, 55, 18.00000000000000000, #64 ) ;
#197 = AXIS2_PLACEMENT_3D ( 'NONE', #56, #41, #214 ) ;
#198 = DIRECTION ( 'NONE',  ( -0.0000000000000000000, -0.0000000000000000000, -1.000000000000000000 ) ) ;
#199 = EDGE_LOOP ( 'NONE', ( #85, #209, #37 ) ) ;
#200 = DIRECTION ( 'NONE',  ( -0.0000000000000000000, -0.0000000000000000000, -1.000000000000000000 ) ) ;
#201 = DIRECTION ( 'NONE',  ( 0.0000000000000000000, 0.0000000000000000000, 1.000000000000000000 ) ) ;
#202 = CARTESIAN_POINT ( 'NONE',  ( -6.382761411652370300, 19.27838622931856000, 0.5121433026290207500 ) ) ;
#203 = FACE_OUTER_BOUND ( 'NONE', #4, .T. ) ;
#204 = PERSON_AND_ORGANIZATION_ROLE ( 'creator' ) ;
#205 = APPROVAL_ROLE ( '' ) ;
#206 = APPROVAL_ROLE ( '' ) ;
#207 = ORIENTED_EDGE ( 'NONE', *, *, #26, .F. ) ;
#208 = AXIS2_PLACEMENT_3D ( 'NONE', #102, #188, #121 ) ;
#209 = ORIENTED_EDGE ( 'NONE', *, *, #15, .T. ) ;
#210 = CC_DESIGN_APPROVAL ( #23, ( #12 ) ) ;
#211 = PERSON ( 'UNSPECIFIED', 'UNSPECIFIED', 'UNSPECIFIED', ('UNSPECIFIED'), ('UNSPECIFIED'), ('UNSPECIFIED') ) ;
#212 = COORDINATED_UNIVERSAL_TIME_OFFSET ( 2, 0, .AHEAD. ) ;
#213 = VERTEX_POINT ( 'NONE', #120 ) ;
#214 = DIRECTION ( 'NONE',  ( 0.0000000000000000000, -1.000000000000000000, 0.0000000000000000000 ) ) ;
#215 = CC_DESIGN_APPROVAL ( #235, ( #72 ) ) ;
#216 = DIRECTION ( 'NONE',  ( 1.000000000000000000, 0.0000000000000000000, 0.0000000000000000000 ) ) ;
#217 = DIRECTION ( 'NONE',  ( 0.0000000000000000000, 0.0000000000000000000, 1.000000000000000000 ) ) ;
#218 = CARTESIAN_POINT ( 'NONE',  ( -19.05000000000000400, 1.444773732675583000E-015, 0.5000723938296219900 ) ) ;
#219 = CYLINDRICAL_SURFACE ( 'NONE', #141, 19.05000000000000100 ) ;
#220 = CARTESIAN_POINT ( 'NONE',  ( -19.17321274801174600, 6.432177024359017300, 0.3354529219571570900 ) ) ;
#221 = CARTESIAN_POINT ( 'NONE',  ( -1.457167719820518000E-013, -19.27838622931855600, 0.5121433026290190800 ) ) ;
#222 = APPROVAL_DATE_TIME ( #139, #235 ) ;
#223 = CARTESIAN_POINT ( 'NONE',  ( -19.13716345738571100, -19.27838622931855600, 1.017519342348560700 ) ) ;
#224 = EDGE_CURVE ( 'NONE', #213, #58, #109, .T. ) ;
#225 = CARTESIAN_POINT ( 'NONE',  ( -5.684341886080800200E-014, 19.04999999999980500, 0.5000723938296100000 ) ) ;
#226 = DIRECTION ( 'NONE',  ( -0.0000000000000000000, -0.0000000000000000000, -1.000000000000000000 ) ) ;
#227 = SECURITY_CLASSIFICATION_LEVEL ( 'unclassified' ) ;
#228 = PERSON_AND_ORGANIZATION ( #211, #22 ) ;
#229 = ORIENTED_EDGE ( 'NONE', *, *, #106, .F. ) ;
#230 = APPROVAL_STATUS ( 'not_yet_approved' ) ;
#231 = CARTESIAN_POINT ( 'NONE',  ( 19.04999999999999700, -8.881784197001250400E-016, 0.5000723938296219900 ) ) ;
#232 = CALENDAR_DATE ( 2018, 21, 12 ) ;
#233 = CIRCLE ( 'NONE', #164, 19.05000000000000100 ) ;
#234 = ADVANCED_BREP_SHAPE_REPRESENTATION ( '110-0435E BK7 pl-cx 38.1 F700', ( #136, #181 ), #74 ) ;
#235 = APPROVAL ( #50, 'UNSPECIFIED' ) ;
ENDSEC;
END-ISO-10303-21;
