ISO-10303-21;
HEADER;
FILE_DESCRIPTION (( 'STEP AP203' ),
    '1' );
FILE_NAME ('110-0427E BK7 pl-cx 38.1 F500.STEP',
    '2018-12-21T06:55:31',
    ( '' ),
    ( '' ),
    'SwSTEP 2.0',
    'SolidWorks 2017',
    '' );
FILE_SCHEMA (( 'CONFIG_CONTROL_DESIGN' ));
ENDSEC;

DATA;
#1 = DATE_AND_TIME ( #21, #77 ) ;
#2 = DIRECTION ( 'NONE',  ( 1.000000000000000000, 0.0000000000000000000, -5.691349986800548400E-018 ) ) ;
#3 = ORIENTED_EDGE ( 'NONE', *, *, #153, .F. ) ;
#4 = PERSON_AND_ORGANIZATION ( #233, #123 ) ;
#5 = PLANE ( 'NONE',  #132 ) ;
#6 = FACE_OUTER_BOUND ( 'NONE', #172, .T. ) ;
#7 = CARTESIAN_POINT ( 'NONE',  ( 6.401219399351114200, -6.437929341476371200, -0.2395593945913056000 ) ) ;
#8 = CARTESIAN_POINT ( 'NONE',  ( 12.75089625803257200, 19.27818070524190100, 0.9530992157248422400 ) ) ;
#9 = DATE_AND_TIME ( #158, #115 ) ;
#10 = PRODUCT_DEFINITION_FORMATION_WITH_SPECIFIED_SOURCE ( 'ANY', '', #216, .NOT_KNOWN. ) ;
#11 = ADVANCED_FACE ( 'NONE', ( #6 ), #232, .T. ) ;
#12 = CARTESIAN_POINT ( 'NONE',  ( -8.699648991079332000E-014, -19.27818070524193700, 0.7173532130614335100 ) ) ;
#13 = CALENDAR_DATE ( 2018, 21, 12 ) ;
#14 = APPROVAL_STATUS ( 'not_yet_approved' ) ;
#15 = AXIS2_PLACEMENT_3D ( 'NONE', #90, #167, #230 ) ;
#16 = VERTEX_POINT ( 'NONE', #67 ) ;
#17 = COORDINATED_UNIVERSAL_TIME_OFFSET ( 2, 0, .AHEAD. ) ;
#18 = UNCERTAINTY_MEASURE_WITH_UNIT (LENGTH_MEASURE( 1.000000000000000100E-005 ), #215, 'distance_accuracy_value', 'NONE');
#19 = ORIENTED_EDGE ( 'NONE', *, *, #142, .F. ) ;
#20 = APPROVAL ( #14, 'UNSPECIFIED' ) ;
#21 = CALENDAR_DATE ( 2018, 21, 12 ) ;
#22 = EDGE_CURVE ( 'NONE', #227, #127, #186, .T. ) ;
#23 = CARTESIAN_POINT ( 'NONE',  ( -1.491862189340053600E-013, 6.437929341476329400, -0.2395593945913471700 ) ) ;
#24 = CARTESIAN_POINT ( 'NONE',  ( -19.05000000000000400, 1.444773732675583000E-015, 0.7004493625858672100 ) ) ;
#25 = CARTESIAN_POINT ( 'NONE',  ( -19.05000000000000400, 1.444773732675583000E-015, 4.000000000000000000 ) ) ;
#26 = AXIS2_PLACEMENT_3D ( 'NONE', #114, #182, #134 ) ;
#27 = CARTESIAN_POINT ( 'NONE',  ( -1.457167719820518000E-013, 19.27818070524189800, 0.7173532130613912100 ) ) ;
#28 = DIRECTION ( 'NONE',  ( 5.827942386483759700E-018, 2.717192996813919900E-034, 1.000000000000000000 ) ) ;
#29 = AXIS2_PLACEMENT_3D ( 'NONE', #225, #113, #50 ) ;
#30 = COORDINATED_UNIVERSAL_TIME_OFFSET ( 2, 0, .AHEAD. ) ;
#31 = CARTESIAN_POINT ( 'NONE',  ( 19.11109521127918100, -19.27818070524193700, 1.424268993144558200 ) ) ;
#32 = CIRCLE ( 'NONE', #15, 19.05000000000000100 ) ;
#33 = CARTESIAN_POINT ( 'NONE',  ( -8.700031753256531900E-014, 19.04999999999978400, 0.7004493625858546600 ) ) ;
#34 = CARTESIAN_POINT ( 'NONE',  ( -8.721316832594166200E-014, -6.437929341476368500, -0.2395593945913041300 ) ) ;
#35 = APPROVAL_ROLE ( '' ) ;
#36 = CIRCLE ( 'NONE', #224, 19.05000000000000100 ) ;
#37 = DIRECTION ( 'NONE',  ( 0.0000000000000000000, 0.0000000000000000000, 1.000000000000000000 ) ) ;
#38 = AXIS2_PLACEMENT_3D ( 'NONE', #89, #169, #93 ) ;
#39 = APPROVAL_STATUS ( 'not_yet_approved' ) ;
#40 = PERSON_AND_ORGANIZATION_ROLE ( 'classification_officer' ) ;
#41 = AXIS2_PLACEMENT_3D ( 'NONE', #131, #209, #130 ) ;
#42 = APPROVAL_PERSON_ORGANIZATION ( #92, #124, #195 ) ;
#43 = ORIENTED_EDGE ( 'NONE', *, *, #187, .T. ) ;
#44 = ORIENTED_EDGE ( 'NONE', *, *, #100, .T. ) ;
#45 = DIRECTION ( 'NONE',  ( 5.827942386483759700E-018, 2.717192996813919900E-034, 1.000000000000000000 ) ) ;
#46 = ORIENTED_EDGE ( 'NONE', *, *, #161, .T. ) ;
#47 =( BOUNDED_SURFACE ( )  B_SPLINE_SURFACE ( 3, 3, ( 
 ( #173, #163, #108, #175 ),
 ( #85, #146, #126, #220 ),
 ( #160, #86, #106, #23 ),
 ( #128, #105, #148, #27 ) ),
 .UNSPECIFIED., .F., .F., .T. ) 
 B_SPLINE_SURFACE_WITH_KNOTS ( ( 4, 4 ),
 ( 4, 4 ),
 ( 0.0000000000000000000, 1.000000000000000000 ),
 ( 0.0000000000000000000, 1.000000000000000000 ),
 .UNSPECIFIED. ) 
 GEOMETRIC_REPRESENTATION_ITEM ( )  RATIONAL_B_SPLINE_SURFACE ( (
 ( 1.000000000000000000, 0.9995443854775594200, 0.9995443854775594200, 1.000000000000000000),
 ( 0.9981563782753497500, 0.9977016037337408400, 0.9977016037337408400, 0.9981563782753497500),
 ( 0.9981563782753497500, 0.9977016037337408400, 0.9977016037337408400, 0.9981563782753497500),
 ( 1.000000000000000000, 0.9995443854775594200, 0.9995443854775594200, 1.000000000000000000) ) ) 
 REPRESENTATION_ITEM ( '' )  SURFACE ( )  );
#48 = AXIS2_PLACEMENT_3D ( 'NONE', #151, #170, #54 ) ;
#49 = ADVANCED_FACE ( 'NONE', ( #150 ), #47, .T. ) ;
#50 = DIRECTION ( 'NONE',  ( 1.000000000000000000, 0.0000000000000000000, -5.691349986800548400E-018 ) ) ;
#51 = EDGE_LOOP ( 'NONE', ( #144, #223 ) ) ;
#52 = DATE_AND_TIME ( #79, #103 ) ;
#53 = CARTESIAN_POINT ( 'NONE',  ( 12.79806406592280200, -6.437929341476371200, -0.002941326000904451600 ) ) ;
#54 = DIRECTION ( 'NONE',  ( 0.0000000000000000000, -1.000000000000000000, -4.279965399480172100E-016 ) ) ;
#55 = CARTESIAN_POINT ( 'NONE',  ( -19.05000000000000400, 1.444773732675583000E-015, 0.7004493625858673200 ) ) ;
#56 = CIRCLE ( 'NONE', #64, 19.05000000000000100 ) ;
#57 = APPLICATION_CONTEXT ( 'configuration controlled 3d designs of mechanical parts and assemblies' ) ;
#58 = APPROVAL_DATE_TIME ( #1, #94 ) ;
#59 = APPLICATION_CONTEXT ( 'configuration controlled 3d designs of mechanical parts and assemblies' ) ;
#60 = ORIENTED_EDGE ( 'NONE', *, *, #161, .F. ) ;
#61 = CC_DESIGN_PERSON_AND_ORGANIZATION_ASSIGNMENT ( #4, #116, ( #216 ) ) ;
#62 =( BOUNDED_SURFACE ( )  B_SPLINE_SURFACE ( 3, 3, ( 
 ( #12, #72, #152, #31 ),
 ( #34, #7, #53, #91 ),
 ( #190, #180, #229, #210 ),
 ( #71, #149, #8, #109 ) ),
 .UNSPECIFIED., .F., .F., .F. ) 
 B_SPLINE_SURFACE_WITH_KNOTS ( ( 4, 4 ),
 ( 4, 4 ),
 ( 0.0000000000000000000, 1.000000000000000000 ),
 ( 0.0000000000000000000, 1.000000000000000000 ),
 .UNSPECIFIED. ) 
 GEOMETRIC_REPRESENTATION_ITEM ( )  RATIONAL_B_SPLINE_SURFACE ( (
 ( 1.000000000000000000, 0.9995443854775594200, 0.9995443854775594200, 1.000000000000000000),
 ( 0.9981563782753497500, 0.9977016037337408400, 0.9977016037337408400, 0.9981563782753497500),
 ( 0.9981563782753497500, 0.9977016037337408400, 0.9977016037337408400, 0.9981563782753497500),
 ( 1.000000000000000000, 0.9995443854775594200, 0.9995443854775594200, 1.000000000000000000) ) ) 
 REPRESENTATION_ITEM ( '' )  SURFACE ( )  );
#63 = COORDINATED_UNIVERSAL_TIME_OFFSET ( 2, 0, .AHEAD. ) ;
#64 = AXIS2_PLACEMENT_3D ( 'NONE', #189, #73, #69 ) ;
#65 = FACE_OUTER_BOUND ( 'NONE', #95, .T. ) ;
#66 = DIRECTION ( 'NONE',  ( -5.827942386483759700E-018, -2.717192996813919900E-034, -1.000000000000000000 ) ) ;
#67 = CARTESIAN_POINT ( 'NONE',  ( -8.700031753256531900E-014, -19.04999999999980500, 0.7004493625858546600 ) ) ;
#68 = EDGE_CURVE ( 'NONE', #127, #101, #36, .T. ) ;
#69 = DIRECTION ( 'NONE',  ( 1.000000000000000000, 0.0000000000000000000, 0.0000000000000000000 ) ) ;
#70 = DATE_AND_TIME ( #204, #145 ) ;
#71 = CARTESIAN_POINT ( 'NONE',  ( -8.699648991079334600E-014, 19.27818070524189800, 0.7173532130613780000 ) ) ;
#72 = CARTESIAN_POINT ( 'NONE',  ( 6.377627433774400800, -19.27818070524194000, 0.7173532130614320700 ) ) ;
#73 = DIRECTION ( 'NONE',  ( -5.827942386483759700E-018, -2.717192996813919900E-034, -1.000000000000000000 ) ) ;
#74 =( NAMED_UNIT ( * ) SI_UNIT ( $, .STERADIAN. ) SOLID_ANGLE_UNIT ( ) );
#75 = ORIENTED_EDGE ( 'NONE', *, *, #201, .F. ) ;
#76 = DIRECTION ( 'NONE',  ( 1.000000000000000000, 0.0000000000000000000, 0.0000000000000000000 ) ) ;
#77 = LOCAL_TIME ( 8, 55, 31.00000000000000000, #129 ) ;
#78 = DATE_TIME_ROLE ( 'classification_date' ) ;
#79 = CALENDAR_DATE ( 2018, 21, 12 ) ;
#80 = CC_DESIGN_PERSON_AND_ORGANIZATION_ASSIGNMENT ( #192, #198, ( #10 ) ) ;
#81 = EDGE_LOOP ( 'NONE', ( #235, #193, #147 ) ) ;
#82 = AXIS2_PLACEMENT_3D ( 'NONE', #88, #28, #2 ) ;
#83 = CIRCLE ( 'NONE', #41, 19.05000000000000100 ) ;
#84 = COORDINATED_UNIVERSAL_TIME_OFFSET ( 2, 0, .AHEAD. ) ;
#85 = CARTESIAN_POINT ( 'NONE',  ( -19.18179051373154600, -6.437929341476368500, 0.4699713912949394800 ) ) ;
#86 = CARTESIAN_POINT ( 'NONE',  ( -12.79806406592303100, 6.437929341476330300, -0.002941326000949878800 ) ) ;
#87 = EDGE_LOOP ( 'NONE', ( #171, #46, #184 ) ) ;
#88 = CARTESIAN_POINT ( 'NONE',  ( -4.662936703425659800E-015, -8.881784197001250400E-016, 0.7004493625858671000 ) ) ;
#89 = CARTESIAN_POINT ( 'NONE',  ( -4.662936703425659800E-015, -8.881784197001250400E-016, 0.7004493625858671000 ) ) ;
#90 = CARTESIAN_POINT ( 'NONE',  ( -4.662936703425659800E-015, -8.881784197001250400E-016, 0.7004493625858672100 ) ) ;
#91 = CARTESIAN_POINT ( 'NONE',  ( 19.18179051373132500, -6.437929341476368500, 0.4699713912949246600 ) ) ;
#92 = PERSON_AND_ORGANIZATION ( #233, #123 ) ;
#93 = DIRECTION ( 'NONE',  ( 1.000000000000000000, 0.0000000000000000000, -5.691349986800548400E-018 ) ) ;
#94 = APPROVAL ( #97, 'UNSPECIFIED' ) ;
#95 = EDGE_LOOP ( 'NONE', ( #156, #60, #3, #44, #43 ) ) ;
#96 = CC_DESIGN_PERSON_AND_ORGANIZATION_ASSIGNMENT ( #111, #118, ( #102 ) ) ;
#97 = APPROVAL_STATUS ( 'not_yet_approved' ) ;
#98 = PRODUCT_DEFINITION_SHAPE ( 'NONE', 'NONE',  #102 ) ;
#99 = CC_DESIGN_PERSON_AND_ORGANIZATION_ASSIGNMENT ( #155, #40, ( #112 ) ) ;
#100 = EDGE_CURVE ( 'NONE', #154, #101, #110, .T. ) ;
#101 = VERTEX_POINT ( 'NONE', #165 ) ;
#102 = PRODUCT_DEFINITION ( 'UNKNOWN', '', #10, #191 ) ;
#103 = LOCAL_TIME ( 8, 55, 31.00000000000000000, #17 ) ;
#104 = CARTESIAN_POINT ( 'NONE',  ( 19.04999999999999700, -8.881784197001250400E-016, 0.7004493625858669900 ) ) ;
#105 = CARTESIAN_POINT ( 'NONE',  ( -12.75089625803279800, 19.27818070524190100, 0.9530992157248531200 ) ) ;
#106 = CARTESIAN_POINT ( 'NONE',  ( -6.401219399351347800, 6.437929341476331200, -0.2395593945913442600 ) ) ;
#107 = DATE_AND_TIME ( #13, #120 ) ;
#108 = CARTESIAN_POINT ( 'NONE',  ( -6.377627433774630800, -19.27818070524194000, 0.7173532130614498300 ) ) ;
#109 = CARTESIAN_POINT ( 'NONE',  ( 19.11109521127918500, 19.27818070524189800, 1.424268993144502900 ) ) ;
#110 = LINE ( 'NONE', #104, #136 ) ;
#111 = PERSON_AND_ORGANIZATION ( #233, #123 ) ;
#112 = SECURITY_CLASSIFICATION ( '', '', #137 ) ;
#113 = DIRECTION ( 'NONE',  ( -5.827942386483759700E-018, -2.717192996813919900E-034, -1.000000000000000000 ) ) ;
#114 = CARTESIAN_POINT ( 'NONE',  ( -4.662936703425659800E-015, -8.881784197001250400E-016, 0.7004493625858672100 ) ) ;
#115 = LOCAL_TIME ( 8, 55, 31.00000000000000000, #63 ) ;
#116 = PERSON_AND_ORGANIZATION_ROLE ( 'design_owner' ) ;
#117 = CLOSED_SHELL ( 'NONE', ( #168, #11, #49, #226, #133 ) ) ;
#118 = PERSON_AND_ORGANIZATION_ROLE ( 'creator' ) ;
#119 = CC_DESIGN_DATE_AND_TIME_ASSIGNMENT ( #9, #138, ( #102 ) ) ;
#120 = LOCAL_TIME ( 8, 55, 31.00000000000000000, #30 ) ;
#121 = PERSON_AND_ORGANIZATION_ROLE ( 'design_supplier' ) ;
#122 = CC_DESIGN_DATE_AND_TIME_ASSIGNMENT ( #70, #78, ( #112 ) ) ;
#123 = ORGANIZATION ( 'UNSPECIFIED', 'UNSPECIFIED', '' ) ;
#124 = APPROVAL ( #39, 'UNSPECIFIED' ) ;
#125 = DIRECTION ( 'NONE',  ( 1.000000000000000000, 0.0000000000000000000, -0.0000000000000000000 ) ) ;
#126 = CARTESIAN_POINT ( 'NONE',  ( -6.401219399351346000, -6.437929341476370300, -0.2395593945912877800 ) ) ;
#127 = VERTEX_POINT ( 'NONE', #25 ) ;
#128 = CARTESIAN_POINT ( 'NONE',  ( -19.11109521127940200, 19.27818070524189800, 1.424268993144517400 ) ) ;
#129 = COORDINATED_UNIVERSAL_TIME_OFFSET ( 2, 0, .AHEAD. ) ;
#130 = DIRECTION ( 'NONE',  ( 1.000000000000000000, 0.0000000000000000000, -5.691349986800548400E-018 ) ) ;
#131 = CARTESIAN_POINT ( 'NONE',  ( -4.662936703425659800E-015, -8.881784197001250400E-016, 0.7004493625858672100 ) ) ;
#132 = AXIS2_PLACEMENT_3D ( 'NONE', #159, #179, #125 ) ;
#133 = ADVANCED_FACE ( 'NONE', ( #218 ), #5, .T. ) ;
#134 = DIRECTION ( 'NONE',  ( 1.000000000000000000, 0.0000000000000000000, -5.691349986800548400E-018 ) ) ;
#135 = CARTESIAN_POINT ( 'NONE',  ( 0.0000000000000000000, 0.0000000000000000000, 0.0000000000000000000 ) ) ;
#136 = VECTOR ( 'NONE', #205, 1000.000000000000000 ) ;
#137 = SECURITY_CLASSIFICATION_LEVEL ( 'unclassified' ) ;
#138 = DATE_TIME_ROLE ( 'creation_date' ) ;
#139 = FACE_OUTER_BOUND ( 'NONE', #81, .T. ) ;
#140 = CC_DESIGN_APPROVAL ( #20, ( #102 ) ) ;
#141 = PERSON_AND_ORGANIZATION ( #233, #123 ) ;
#142 = EDGE_CURVE ( 'NONE', #227, #207, #83, .T. ) ;
#143 = CC_DESIGN_SECURITY_CLASSIFICATION ( #112, ( #10 ) ) ;
#144 = ORIENTED_EDGE ( 'NONE', *, *, #187, .F. ) ;
#145 = LOCAL_TIME ( 8, 55, 31.00000000000000000, #84 ) ;
#146 = CARTESIAN_POINT ( 'NONE',  ( -12.79806406592302700, -6.437929341476371200, -0.002941326000893392700 ) ) ;
#147 = ORIENTED_EDGE ( 'NONE', *, *, #201, .T. ) ;
#148 = CARTESIAN_POINT ( 'NONE',  ( -6.377627433774629000, 19.27818070524190100, 0.7173532130613941000 ) ) ;
#149 = CARTESIAN_POINT ( 'NONE',  ( 6.377627433774402600, 19.27818070524190100, 0.7173532130613765600 ) ) ;
#150 = FACE_OUTER_BOUND ( 'NONE', #87, .T. ) ;
#151 = CARTESIAN_POINT ( 'NONE',  ( -2.842170943040400100E-014, -2.842170943040400100E-014, 259.3999999999999800 ) ) ;
#152 = CARTESIAN_POINT ( 'NONE',  ( 12.75089625803257200, -19.27818070524194000, 0.9530992157248976400 ) ) ;
#153 = EDGE_CURVE ( 'NONE', #154, #16, #32, .T. ) ;
#154 = VERTEX_POINT ( 'NONE', #177 ) ;
#155 = PERSON_AND_ORGANIZATION ( #233, #123 ) ;
#156 = ORIENTED_EDGE ( 'NONE', *, *, #22, .F. ) ;
#157 = APPROVAL_PERSON_ORGANIZATION ( #202, #94, #35 ) ;
#158 = CALENDAR_DATE ( 2018, 21, 12 ) ;
#159 = CARTESIAN_POINT ( 'NONE',  ( 0.0000000000000000000, 39.06600000000000300, 4.000000000000000000 ) ) ;
#160 = CARTESIAN_POINT ( 'NONE',  ( -19.18179051373154900, 6.437929341476328600, 0.4699713912948830800 ) ) ;
#161 = EDGE_CURVE ( 'NONE', #16, #227, #219, .T. ) ;
#162 = CYLINDRICAL_SURFACE ( 'NONE', #38, 19.05000000000000100 ) ;
#163 = CARTESIAN_POINT ( 'NONE',  ( -12.75089625803279400, -19.27818070524194000, 0.9530992157249086300 ) ) ;
#164 = ADVANCED_BREP_SHAPE_REPRESENTATION ( '110-0427E BK7 pl-cx 38.1 F500', ( #176, #221 ), #228 ) ;
#165 = CARTESIAN_POINT ( 'NONE',  ( 19.04999999999999700, -8.881784197001250400E-016, 4.000000000000000000 ) ) ;
#166 = ORIENTED_EDGE ( 'NONE', *, *, #68, .T. ) ;
#167 = DIRECTION ( 'NONE',  ( -5.827942386483759700E-018, -2.717192996813919900E-034, -1.000000000000000000 ) ) ;
#168 = ADVANCED_FACE ( 'NONE', ( #139 ), #62, .T. ) ;
#169 = DIRECTION ( 'NONE',  ( 5.827942386483759700E-018, 2.717192996813919900E-034, 1.000000000000000000 ) ) ;
#170 = DIRECTION ( 'NONE',  ( 1.000000000000000000, 1.014630051716460000E-031, -2.264349047295540000E-016 ) ) ;
#171 = ORIENTED_EDGE ( 'NONE', *, *, #222, .F. ) ;
#172 = EDGE_LOOP ( 'NONE', ( #19, #185, #166, #231, #75 ) ) ;
#173 = CARTESIAN_POINT ( 'NONE',  ( -19.11109521127939800, -19.27818070524193700, 1.424268993144572900 ) ) ;
#174 = APPROVAL_PERSON_ORGANIZATION ( #141, #20, #196 ) ;
#175 = CARTESIAN_POINT ( 'NONE',  ( -1.491862189340054100E-013, -19.27818070524193700, 0.7173532130614469500 ) ) ;
#176 = MANIFOLD_SOLID_BREP ( 'Imported1', #117 ) ;
#177 = CARTESIAN_POINT ( 'NONE',  ( 19.04999999999999700, -8.881784197001250400E-016, 0.7004493625858671000 ) ) ;
#178 = CC_DESIGN_PERSON_AND_ORGANIZATION_ASSIGNMENT ( #181, #121, ( #10 ) ) ;
#179 = DIRECTION ( 'NONE',  ( 0.0000000000000000000, 0.0000000000000000000, 1.000000000000000000 ) ) ;
#180 = CARTESIAN_POINT ( 'NONE',  ( 6.401219399351115100, 6.437929341476330300, -0.2395593945913619700 ) ) ;
#181 = PERSON_AND_ORGANIZATION ( #233, #123 ) ;
#182 = DIRECTION ( 'NONE',  ( -5.827942386483759700E-018, -2.717192996813919900E-034, -1.000000000000000000 ) ) ;
#183 = MECHANICAL_CONTEXT ( 'NONE', #57, 'mechanical' ) ;
#184 = ORIENTED_EDGE ( 'NONE', *, *, #142, .T. ) ;
#185 = ORIENTED_EDGE ( 'NONE', *, *, #22, .T. ) ;
#186 = LINE ( 'NONE', #24, #199 ) ;
#187 = EDGE_CURVE ( 'NONE', #101, #127, #56, .T. ) ;
#188 = DIRECTION ( 'NONE',  ( 1.000000000000000000, 0.0000000000000000000, 0.0000000000000000000 ) ) ;
#189 = CARTESIAN_POINT ( 'NONE',  ( -4.643707112409524800E-015, -8.881784197001250400E-016, 4.000000000000000000 ) ) ;
#190 = CARTESIAN_POINT ( 'NONE',  ( -8.721316832594168700E-014, 6.437929341476328600, -0.2395593945913605000 ) ) ;
#191 = DESIGN_CONTEXT ( 'detailed design', #59, 'design' ) ;
#192 = PERSON_AND_ORGANIZATION ( #233, #123 ) ;
#193 = ORIENTED_EDGE ( 'NONE', *, *, #222, .T. ) ;
#194 = CIRCLE ( 'NONE', #48, 259.3999999999999800 ) ;
#195 = APPROVAL_ROLE ( '' ) ;
#196 = APPROVAL_ROLE ( '' ) ;
#197 = CC_DESIGN_APPROVAL ( #94, ( #10 ) ) ;
#198 = PERSON_AND_ORGANIZATION_ROLE ( 'creator' ) ;
#199 = VECTOR ( 'NONE', #45, 1000.000000000000000 ) ;
#200 = APPLICATION_PROTOCOL_DEFINITION ( 'international standard', 'config_control_design', 1994, #59 ) ;
#201 = EDGE_CURVE ( 'NONE', #207, #154, #213, .T. ) ;
#202 = PERSON_AND_ORGANIZATION ( #233, #123 ) ;
#203 = APPROVAL_DATE_TIME ( #107, #20 ) ;
#204 = CALENDAR_DATE ( 2018, 21, 12 ) ;
#205 = DIRECTION ( 'NONE',  ( 5.827942386483759700E-018, 2.717192996813919900E-034, 1.000000000000000000 ) ) ;
#206 = CARTESIAN_POINT ( 'NONE',  ( -4.643707112409524800E-015, -8.881784197001250400E-016, 4.000000000000000000 ) ) ;
#207 = VERTEX_POINT ( 'NONE', #33 ) ;
#208 = CC_DESIGN_APPROVAL ( #124, ( #112 ) ) ;
#209 = DIRECTION ( 'NONE',  ( -5.827942386483759700E-018, -2.717192996813919900E-034, -1.000000000000000000 ) ) ;
#210 = CARTESIAN_POINT ( 'NONE',  ( 19.18179051373133200, 6.437929341476328600, 0.4699713912948684200 ) ) ;
#211 = PRODUCT_RELATED_PRODUCT_CATEGORY ( 'detail', '', ( #216 ) ) ;
#212 = APPLICATION_PROTOCOL_DEFINITION ( 'international standard', 'config_control_design', 1994, #57 ) ;
#213 = CIRCLE ( 'NONE', #29, 19.05000000000000100 ) ;
#214 =( NAMED_UNIT ( * ) PLANE_ANGLE_UNIT ( ) SI_UNIT ( $, .RADIAN. ) );
#215 =( LENGTH_UNIT ( ) NAMED_UNIT ( * ) SI_UNIT ( .MILLI., .METRE. ) );
#216 = PRODUCT ( '110-0427E BK7 pl-cx 38.1 F500', '110-0427E BK7 pl-cx 38.1 F500', '', ( #183 ) ) ;
#217 = SHAPE_DEFINITION_REPRESENTATION ( #98, #164 ) ;
#218 = FACE_OUTER_BOUND ( 'NONE', #51, .T. ) ;
#219 = CIRCLE ( 'NONE', #26, 19.05000000000000100 ) ;
#220 = CARTESIAN_POINT ( 'NONE',  ( -1.491862189340053600E-013, -6.437929341476367600, -0.2395593945912906600 ) ) ;
#221 = AXIS2_PLACEMENT_3D ( 'NONE', #135, #37, #76 ) ;
#222 = EDGE_CURVE ( 'NONE', #16, #207, #194, .T. ) ;
#223 = ORIENTED_EDGE ( 'NONE', *, *, #68, .F. ) ;
#224 = AXIS2_PLACEMENT_3D ( 'NONE', #206, #66, #188 ) ;
#225 = CARTESIAN_POINT ( 'NONE',  ( -4.662936703425659800E-015, -8.881784197001250400E-016, 0.7004493625858672100 ) ) ;
#226 = ADVANCED_FACE ( 'NONE', ( #65 ), #162, .T. ) ;
#227 = VERTEX_POINT ( 'NONE', #55 ) ;
#228 =( GEOMETRIC_REPRESENTATION_CONTEXT ( 3 ) GLOBAL_UNCERTAINTY_ASSIGNED_CONTEXT ( ( #18 ) ) GLOBAL_UNIT_ASSIGNED_CONTEXT ( ( #215, #214, #74 ) ) REPRESENTATION_CONTEXT ( 'NONE', 'WORKASPACE' ) );
#229 = CARTESIAN_POINT ( 'NONE',  ( 12.79806406592280900, 6.437929341476330300, -0.002941326000960884800 ) ) ;
#230 = DIRECTION ( 'NONE',  ( 1.000000000000000000, 0.0000000000000000000, -5.691349986800548400E-018 ) ) ;
#231 = ORIENTED_EDGE ( 'NONE', *, *, #100, .F. ) ;
#232 = CYLINDRICAL_SURFACE ( 'NONE', #82, 19.05000000000000100 ) ;
#233 = PERSON ( 'UNSPECIFIED', 'UNSPECIFIED', 'UNSPECIFIED', ('UNSPECIFIED'), ('UNSPECIFIED'), ('UNSPECIFIED') ) ;
#234 = APPROVAL_DATE_TIME ( #52, #124 ) ;
#235 = ORIENTED_EDGE ( 'NONE', *, *, #153, .T. ) ;
ENDSEC;
END-ISO-10303-21;
