ISO-10303-21;
HEADER;
FILE_DESCRIPTION (( 'STEP AP203' ),
    '1' );
FILE_NAME ('110-0423E BK7 pl-cx 38.1 F400.STEP',
    '2018-12-21T06:55:46',
    ( '' ),
    ( '' ),
    'SwSTEP 2.0',
    'SolidWorks 2017',
    '' );
FILE_SCHEMA (( 'CONFIG_CONTROL_DESIGN' ));
ENDSEC;

DATA;
#1 =( LENGTH_UNIT ( ) NAMED_UNIT ( * ) SI_UNIT ( .MILLI., .METRE. ) );
#2 = PRODUCT ( '110-0423E BK7 pl-cx 38.1 F400', '110-0423E BK7 pl-cx 38.1 F400', '', ( #34 ) ) ;
#3 = APPROVAL_ROLE ( '' ) ;
#4 = ORIENTED_EDGE ( 'NONE', *, *, #62, .F. ) ;
#5 = APPROVAL_STATUS ( 'not_yet_approved' ) ;
#6 = APPROVAL_STATUS ( 'not_yet_approved' ) ;
#7 =( BOUNDED_SURFACE ( )  B_SPLINE_SURFACE ( 3, 3, ( 
 ( #206, #227, #69, #39 ),
 ( #160, #179, #122, #141 ),
 ( #22, #212, #73, #43 ),
 ( #209, #105, #193, #107 ) ),
 .UNSPECIFIED., .F., .F., .T. ) 
 B_SPLINE_SURFACE_WITH_KNOTS ( ( 4, 4 ),
 ( 4, 4 ),
 ( 0.0000000000000000000, 1.000000000000000000 ),
 ( 0.0000000000000000000, 1.000000000000000000 ),
 .UNSPECIFIED. ) 
 GEOMETRIC_REPRESENTATION_ITEM ( )  RATIONAL_B_SPLINE_SURFACE ( (
 ( 1.000000000000000000, 0.9992872864348717500, 0.9992872864348717500, 1.000000000000000000),
 ( 0.9971166048235199400, 0.9964059462932476400, 0.9964059462932476400, 0.9971166048235199400),
 ( 0.9971166048235199400, 0.9964059462932476400, 0.9964059462932476400, 0.9971166048235199400),
 ( 1.000000000000000000, 0.9992872864348717500, 0.9992872864348717500, 1.000000000000000000) ) ) 
 REPRESENTATION_ITEM ( '' )  SURFACE ( )  );
#8 = CC_DESIGN_PERSON_AND_ORGANIZATION_ASSIGNMENT ( #180, #31, ( #235 ) ) ;
#9 = ORGANIZATION ( 'UNSPECIFIED', 'UNSPECIFIED', '' ) ;
#10 = ORIENTED_EDGE ( 'NONE', *, *, #215, .T. ) ;
#11 = AXIS2_PLACEMENT_3D ( 'NONE', #25, #24, #142 ) ;
#12 = CALENDAR_DATE ( 2018, 21, 12 ) ;
#13 = VECTOR ( 'NONE', #195, 1000.000000000000000 ) ;
#14 = DIRECTION ( 'NONE',  ( 1.000000000000000000, 8.881784197001252300E-016, -5.691349986800548400E-018 ) ) ;
#15 = CC_DESIGN_PERSON_AND_ORGANIZATION_ASSIGNMENT ( #147, #150, ( #2 ) ) ;
#16 = DATE_AND_TIME ( #134, #168 ) ;
#17 = CARTESIAN_POINT ( 'NONE',  ( -19.05000000000000400, 1.444773732675583000E-015, 0.8763142812518692800 ) ) ;
#18 = MANIFOLD_SOLID_BREP ( 'Imported1', #113 ) ;
#19 = DIRECTION ( 'NONE',  ( -5.827942386483759700E-018, -2.717192996813919900E-034, -1.000000000000000000 ) ) ;
#20 = CARTESIAN_POINT ( 'NONE',  ( 3.816391647148975600E-014, -19.27794392787275200, 0.8974567486794152700 ) ) ;
#21 = CARTESIAN_POINT ( 'NONE',  ( -4.662936703425659800E-015, -8.881784197001250400E-016, 0.8763142812518691600 ) ) ;
#22 = CARTESIAN_POINT ( 'NONE',  ( 7.691436485646972500E-014, 6.444563532695625900, -0.3000173180475218000 ) ) ;
#23 = CIRCLE ( 'NONE', #37, 19.05000000000000100 ) ;
#24 = DIRECTION ( 'NONE',  ( 1.000000000000000000, 2.800826601236830100E-016, 2.420484202686870100E-016 ) ) ;
#25 = CARTESIAN_POINT ( 'NONE',  ( 2.842170943040400100E-014, 0.0000000000000000000, 207.5000000000000300 ) ) ;
#26 = CARTESIAN_POINT ( 'NONE',  ( -19.19168343065660000, 6.444563532695618800, 0.5881190349903809800 ) ) ;
#27 = DIRECTION ( 'NONE',  ( 1.000000000000000000, 0.0000000000000000000, 0.0000000000000000000 ) ) ;
#28 = CARTESIAN_POINT ( 'NONE',  ( -4.662936703425659800E-015, -8.881784197001250400E-016, 0.8763142812518692800 ) ) ;
#29 = AXIS2_PLACEMENT_3D ( 'NONE', #181, #162, #90 ) ;
#30 = LINE ( 'NONE', #75, #13 ) ;
#31 = PERSON_AND_ORGANIZATION_ROLE ( 'design_supplier' ) ;
#32 = CC_DESIGN_APPROVAL ( #92, ( #189 ) ) ;
#33 = DESIGN_CONTEXT ( 'detailed design', #171, 'design' ) ;
#34 = MECHANICAL_CONTEXT ( 'NONE', #218, 'mechanical' ) ;
#35 = PERSON_AND_ORGANIZATION ( #64, #9 ) ;
#36 = CYLINDRICAL_SURFACE ( 'NONE', #29, 19.05000000000000100 ) ;
#37 = AXIS2_PLACEMENT_3D ( 'NONE', #28, #183, #46 ) ;
#38 = VERTEX_POINT ( 'NONE', #70 ) ;
#39 = CARTESIAN_POINT ( 'NONE',  ( 19.08108891049411300, -19.27794392787274400, 1.780475102863392100 ) ) ;
#40 = AXIS2_PLACEMENT_3D ( 'NONE', #44, #164, #165 ) ;
#41 = CARTESIAN_POINT ( 'NONE',  ( 2.428612866367529900E-014, 19.27794392787276900, 0.8974567486794148300 ) ) ;
#42 = DIRECTION ( 'NONE',  ( 5.827942386483759700E-018, 2.717192996813919900E-034, 1.000000000000000000 ) ) ;
#43 = CARTESIAN_POINT ( 'NONE',  ( 19.19168343065658900, 6.444563532695630300, 0.5881190349903849800 ) ) ;
#44 = CARTESIAN_POINT ( 'NONE',  ( -4.662936703425659800E-015, -8.881784197001250400E-016, 0.8763142812518692800 ) ) ;
#45 = ORIENTED_EDGE ( 'NONE', *, *, #225, .T. ) ;
#46 = DIRECTION ( 'NONE',  ( 1.000000000000000000, -1.776356839400250500E-015, -5.691349986800548400E-018 ) ) ;
#47 = DATE_AND_TIME ( #110, #184 ) ;
#48 =( NAMED_UNIT ( * ) SI_UNIT ( $, .STERADIAN. ) SOLID_ANGLE_UNIT ( ) );
#49 = UNCERTAINTY_MEASURE_WITH_UNIT (LENGTH_MEASURE( 1.000000000000000100E-005 ), #1, 'distance_accuracy_value', 'NONE');
#50 = FACE_OUTER_BOUND ( 'NONE', #201, .T. ) ;
#51 = COORDINATED_UNIVERSAL_TIME_OFFSET ( 2, 0, .AHEAD. ) ;
#52 = ORIENTED_EDGE ( 'NONE', *, *, #58, .T. ) ;
#53 = AXIS2_PLACEMENT_3D ( 'NONE', #21, #42, #60 ) ;
#54 = ORIENTED_EDGE ( 'NONE', *, *, #187, .T. ) ;
#55 = CARTESIAN_POINT ( 'NONE',  ( 19.04999999999999700, -8.881784197001250400E-016, 0.8763142812518691600 ) ) ;
#56 = APPROVAL_PERSON_ORGANIZATION ( #199, #149, #3 ) ;
#57 = VERTEX_POINT ( 'NONE', #55 ) ;
#58 = EDGE_CURVE ( 'NONE', #80, #38, #98, .T. ) ;
#59 = CARTESIAN_POINT ( 'NONE',  ( 19.04999999999999700, -8.881784197001250400E-016, 4.000000000000000000 ) ) ;
#60 = DIRECTION ( 'NONE',  ( 1.000000000000000000, 0.0000000000000000000, -5.691349986800548400E-018 ) ) ;
#61 = EDGE_CURVE ( 'NONE', #86, #38, #83, .T. ) ;
#62 = EDGE_CURVE ( 'NONE', #80, #136, #217, .T. ) ;
#63 = CYLINDRICAL_SURFACE ( 'NONE', #53, 19.05000000000000100 ) ;
#64 = PERSON ( 'UNSPECIFIED', 'UNSPECIFIED', 'UNSPECIFIED', ('UNSPECIFIED'), ('UNSPECIFIED'), ('UNSPECIFIED') ) ;
#65 = DATE_TIME_ROLE ( 'creation_date' ) ;
#66 = EDGE_LOOP ( 'NONE', ( #163, #132, #220 ) ) ;
#67 = PERSON_AND_ORGANIZATION ( #64, #9 ) ;
#68 = CIRCLE ( 'NONE', #11, 207.5000000000000300 ) ;
#69 = CARTESIAN_POINT ( 'NONE',  ( 12.73661044793254000, -19.27794392787274800, 1.192006129413331500 ) ) ;
#70 = CARTESIAN_POINT ( 'NONE',  ( -19.05000000000000400, 1.444773732675583000E-015, 4.000000000000000000 ) ) ;
#71 = AXIS2_PLACEMENT_3D ( 'NONE', #88, #232, #182 ) ;
#72 = CARTESIAN_POINT ( 'NONE',  ( -6.371711127681574100, 19.27794392787276600, 0.8974567486794148300 ) ) ;
#73 = CARTESIAN_POINT ( 'NONE',  ( 12.81043219508716100, 6.444563532695626800, -0.003760720939360189000 ) ) ;
#74 = DATE_AND_TIME ( #127, #154 ) ;
#75 = CARTESIAN_POINT ( 'NONE',  ( 19.04999999999999700, -8.881784197001250400E-016, 0.8763142812518690500 ) ) ;
#76 = ADVANCED_BREP_SHAPE_REPRESENTATION ( '110-0423E BK7 pl-cx 38.1 F400', ( #18, #221 ), #198 ) ;
#77 = DATE_AND_TIME ( #12, #190 ) ;
#78 = ORIENTED_EDGE ( 'NONE', *, *, #230, .F. ) ;
#79 = AXIS2_PLACEMENT_3D ( 'NONE', #214, #146, #27 ) ;
#80 = VERTEX_POINT ( 'NONE', #135 ) ;
#81 = APPLICATION_PROTOCOL_DEFINITION ( 'international standard', 'config_control_design', 1994, #218 ) ;
#82 = APPROVAL_DATE_TIME ( #74, #152 ) ;
#83 = CIRCLE ( 'NONE', #167, 19.05000000000000100 ) ;
#84 = VERTEX_POINT ( 'NONE', #138 ) ;
#85 = CARTESIAN_POINT ( 'NONE',  ( -4.662936703425659800E-015, -8.881784197001250400E-016, 0.8763142812518692800 ) ) ;
#86 = VERTEX_POINT ( 'NONE', #59 ) ;
#87 = CC_DESIGN_APPROVAL ( #152, ( #176 ) ) ;
#88 = CARTESIAN_POINT ( 'NONE',  ( 0.0000000000000000000, 39.06600000000000300, 4.000000000000000000 ) ) ;
#89 = CARTESIAN_POINT ( 'NONE',  ( -19.08108891049412000, 19.27794392787276200, 1.780475102863388100 ) ) ;
#90 = DIRECTION ( 'NONE',  ( 1.000000000000000000, 0.0000000000000000000, -5.691349986800548400E-018 ) ) ;
#91 = CARTESIAN_POINT ( 'NONE',  ( -6.371711127681559900, -19.27794392787275500, 0.8974567486794151600 ) ) ;
#92 = APPROVAL ( #6, 'UNSPECIFIED' ) ;
#93 = ORIENTED_EDGE ( 'NONE', *, *, #204, .T. ) ;
#94 = AXIS2_PLACEMENT_3D ( 'NONE', #123, #233, #140 ) ;
#95 = EDGE_LOOP ( 'NONE', ( #210, #125, #175, #10, #234 ) ) ;
#96 = PERSON_AND_ORGANIZATION_ROLE ( 'classification_officer' ) ;
#97 = DATE_TIME_ROLE ( 'classification_date' ) ;
#98 = LINE ( 'NONE', #17, #108 ) ;
#99 = ADVANCED_FACE ( 'NONE', ( #186 ), #7, .T. ) ;
#100 = SHAPE_DEFINITION_REPRESENTATION ( #139, #76 ) ;
#101 = DIRECTION ( 'NONE',  ( 5.827942386483759700E-018, 2.717192996813919900E-034, 1.000000000000000000 ) ) ;
#102 = AXIS2_PLACEMENT_3D ( 'NONE', #85, #19, #14 ) ;
#103 = ADVANCED_FACE ( 'NONE', ( #191 ), #36, .T. ) ;
#104 = CARTESIAN_POINT ( 'NONE',  ( -6.408641741971215400, 6.444563532695619700, -0.3000173180475218500 ) ) ;
#105 = CARTESIAN_POINT ( 'NONE',  ( 6.371711127681633600, 19.27794392787277300, 0.8974567486794164900 ) ) ;
#106 = CARTESIAN_POINT ( 'NONE',  ( -12.73661044793251000, 19.27794392787276600, 1.192006129413322200 ) ) ;
#107 = CARTESIAN_POINT ( 'NONE',  ( 19.08108891049410300, 19.27794392787277600, 1.780475102863392100 ) ) ;
#108 = VECTOR ( 'NONE', #101, 1000.000000000000000 ) ;
#109 = CARTESIAN_POINT ( 'NONE',  ( 7.309907147336450200E-014, 19.04999999999997600, 0.8763142812518567300 ) ) ;
#110 = CALENDAR_DATE ( 2018, 21, 12 ) ;
#111 = DIRECTION ( 'NONE',  ( 0.0000000000000000000, 0.0000000000000000000, 1.000000000000000000 ) ) ;
#112 = CC_DESIGN_PERSON_AND_ORGANIZATION_ASSIGNMENT ( #208, #96, ( #176 ) ) ;
#113 = CLOSED_SHELL ( 'NONE', ( #99, #103, #158, #205, #156 ) ) ;
#114 = DIRECTION ( 'NONE',  ( 1.000000000000000000, 0.0000000000000000000, 0.0000000000000000000 ) ) ;
#115 = PERSON_AND_ORGANIZATION_ROLE ( 'creator' ) ;
#116 = APPROVAL_PERSON_ORGANIZATION ( #67, #152, #185 ) ;
#117 = CIRCLE ( 'NONE', #94, 19.05000000000000100 ) ;
#118 = COORDINATED_UNIVERSAL_TIME_OFFSET ( 2, 0, .AHEAD. ) ;
#119 = DIRECTION ( 'NONE',  ( 1.000000000000000000, 0.0000000000000000000, 0.0000000000000000000 ) ) ;
#120 = PERSON_AND_ORGANIZATION ( #64, #9 ) ;
#121 = PRODUCT_RELATED_PRODUCT_CATEGORY ( 'detail', '', ( #2 ) ) ;
#122 = CARTESIAN_POINT ( 'NONE',  ( 12.81043219508716500, -6.444563532695602800, -0.003760720939359213600 ) ) ;
#123 = CARTESIAN_POINT ( 'NONE',  ( -4.662936703425659800E-015, -8.881784197001250400E-016, 0.8763142812518692800 ) ) ;
#124 = CARTESIAN_POINT ( 'NONE',  ( -12.81043219508713400, 6.444563532695617900, -0.003760720939369622000 ) ) ;
#125 = ORIENTED_EDGE ( 'NONE', *, *, #222, .F. ) ;
#126 = CC_DESIGN_DATE_AND_TIME_ASSIGNMENT ( #47, #97, ( #176 ) ) ;
#127 = CALENDAR_DATE ( 2018, 21, 12 ) ;
#128 = FACE_OUTER_BOUND ( 'NONE', #95, .T. ) ;
#129 = APPLICATION_PROTOCOL_DEFINITION ( 'international standard', 'config_control_design', 1994, #171 ) ;
#130 = PERSON_AND_ORGANIZATION_ROLE ( 'creator' ) ;
#131 = COORDINATED_UNIVERSAL_TIME_OFFSET ( 2, 0, .AHEAD. ) ;
#132 = ORIENTED_EDGE ( 'NONE', *, *, #222, .T. ) ;
#133 =( BOUNDED_SURFACE ( )  B_SPLINE_SURFACE ( 3, 3, ( 
 ( #161, #144, #91, #20 ),
 ( #197, #207, #137, #213 ),
 ( #26, #124, #104, #211 ),
 ( #89, #106, #72, #41 ) ),
 .UNSPECIFIED., .F., .F., .F. ) 
 B_SPLINE_SURFACE_WITH_KNOTS ( ( 4, 4 ),
 ( 4, 4 ),
 ( 0.0000000000000000000, 1.000000000000000000 ),
 ( 0.0000000000000000000, 1.000000000000000000 ),
 .UNSPECIFIED. ) 
 GEOMETRIC_REPRESENTATION_ITEM ( )  RATIONAL_B_SPLINE_SURFACE ( (
 ( 1.000000000000000000, 0.9992872864348717500, 0.9992872864348717500, 1.000000000000000000),
 ( 0.9971166048235199400, 0.9964059462932476400, 0.9964059462932476400, 0.9971166048235199400),
 ( 0.9971166048235199400, 0.9964059462932476400, 0.9964059462932476400, 0.9971166048235199400),
 ( 1.000000000000000000, 0.9992872864348717500, 0.9992872864348717500, 1.000000000000000000) ) ) 
 REPRESENTATION_ITEM ( '' )  SURFACE ( )  );
#134 = CALENDAR_DATE ( 2018, 21, 12 ) ;
#135 = CARTESIAN_POINT ( 'NONE',  ( -19.05000000000000400, 1.444773732675583000E-015, 0.8763142812518693900 ) ) ;
#136 = VERTEX_POINT ( 'NONE', #109 ) ;
#137 = CARTESIAN_POINT ( 'NONE',  ( -6.408641741971208300, -6.444563532695609000, -0.3000173180475206900 ) ) ;
#138 = CARTESIAN_POINT ( 'NONE',  ( 8.377022082407680800E-014, -19.04999999999997600, 0.8763142812518567300 ) ) ;
#139 = PRODUCT_DEFINITION_SHAPE ( 'NONE', 'NONE',  #189 ) ;
#140 = DIRECTION ( 'NONE',  ( 1.000000000000000000, 0.0000000000000000000, -5.691349986800548400E-018 ) ) ;
#141 = CARTESIAN_POINT ( 'NONE',  ( 19.19168343065659200, -6.444563532695602800, 0.5881190349903859800 ) ) ;
#142 = DIRECTION ( 'NONE',  ( 2.800826601236829100E-016, -1.000000000000000000, 0.0000000000000000000 ) ) ;
#143 = EDGE_LOOP ( 'NONE', ( #4, #52, #148, #196, #177 ) ) ;
#144 = CARTESIAN_POINT ( 'NONE',  ( -12.73661044793249500, -19.27794392787275500, 1.192006129413322400 ) ) ;
#145 =( NAMED_UNIT ( * ) PLANE_ANGLE_UNIT ( ) SI_UNIT ( $, .RADIAN. ) );
#146 = DIRECTION ( 'NONE',  ( -5.827942386483759700E-018, -2.717192996813919900E-034, -1.000000000000000000 ) ) ;
#147 = PERSON_AND_ORGANIZATION ( #64, #9 ) ;
#148 = ORIENTED_EDGE ( 'NONE', *, *, #230, .T. ) ;
#149 = APPROVAL ( #153, 'UNSPECIFIED' ) ;
#150 = PERSON_AND_ORGANIZATION_ROLE ( 'design_owner' ) ;
#151 = APPROVAL_DATE_TIME ( #16, #149 ) ;
#152 = APPROVAL ( #5, 'UNSPECIFIED' ) ;
#153 = APPROVAL_STATUS ( 'not_yet_approved' ) ;
#154 = LOCAL_TIME ( 8, 55, 46.00000000000000000, #131 ) ;
#155 = CC_DESIGN_SECURITY_CLASSIFICATION ( #176, ( #235 ) ) ;
#156 = ADVANCED_FACE ( 'NONE', ( #50 ), #192, .T. ) ;
#157 = LOCAL_TIME ( 8, 55, 46.00000000000000000, #174 ) ;
#158 = ADVANCED_FACE ( 'NONE', ( #226 ), #133, .T. ) ;
#159 = CALENDAR_DATE ( 2018, 21, 12 ) ;
#160 = CARTESIAN_POINT ( 'NONE',  ( 8.052438585161663900E-014, -6.444563532695608100, -0.3000173180475206900 ) ) ;
#161 = CARTESIAN_POINT ( 'NONE',  ( -19.08108891049410600, -19.27794392787275900, 1.780475102863388100 ) ) ;
#162 = DIRECTION ( 'NONE',  ( 5.827942386483759700E-018, 2.717192996813919900E-034, 1.000000000000000000 ) ) ;
#163 = ORIENTED_EDGE ( 'NONE', *, *, #204, .F. ) ;
#164 = DIRECTION ( 'NONE',  ( -5.827942386483759700E-018, -2.717192996813919900E-034, -1.000000000000000000 ) ) ;
#165 = DIRECTION ( 'NONE',  ( 1.000000000000000000, 0.0000000000000000000, -5.691349986800548400E-018 ) ) ;
#166 = CARTESIAN_POINT ( 'NONE',  ( 0.0000000000000000000, 0.0000000000000000000, 0.0000000000000000000 ) ) ;
#167 = AXIS2_PLACEMENT_3D ( 'NONE', #229, #178, #119 ) ;
#168 = LOCAL_TIME ( 8, 55, 46.00000000000000000, #223 ) ;
#169 = EDGE_LOOP ( 'NONE', ( #54, #93, #45 ) ) ;
#170 = APPROVAL_ROLE ( '' ) ;
#171 = APPLICATION_CONTEXT ( 'configuration controlled 3d designs of mechanical parts and assemblies' ) ;
#172 = CC_DESIGN_PERSON_AND_ORGANIZATION_ASSIGNMENT ( #188, #130, ( #189 ) ) ;
#173 = SECURITY_CLASSIFICATION_LEVEL ( 'unclassified' ) ;
#174 = COORDINATED_UNIVERSAL_TIME_OFFSET ( 2, 0, .AHEAD. ) ;
#175 = ORIENTED_EDGE ( 'NONE', *, *, #187, .F. ) ;
#176 = SECURITY_CLASSIFICATION ( '', '', #173 ) ;
#177 = ORIENTED_EDGE ( 'NONE', *, *, #225, .F. ) ;
#178 = DIRECTION ( 'NONE',  ( -5.827942386483759700E-018, -2.717192996813919900E-034, -1.000000000000000000 ) ) ;
#179 = CARTESIAN_POINT ( 'NONE',  ( 6.408641741971284700, -6.444563532695604600, -0.3000173180475190200 ) ) ;
#180 = PERSON_AND_ORGANIZATION ( #64, #9 ) ;
#181 = CARTESIAN_POINT ( 'NONE',  ( -4.662936703425659800E-015, -8.881784197001250400E-016, 0.8763142812518691600 ) ) ;
#182 = DIRECTION ( 'NONE',  ( 1.000000000000000000, 0.0000000000000000000, -0.0000000000000000000 ) ) ;
#183 = DIRECTION ( 'NONE',  ( -5.827942386483759700E-018, -2.717192996813919900E-034, -1.000000000000000000 ) ) ;
#184 = LOCAL_TIME ( 8, 55, 46.00000000000000000, #51 ) ;
#185 = APPROVAL_ROLE ( '' ) ;
#186 = FACE_OUTER_BOUND ( 'NONE', #169, .T. ) ;
#187 = EDGE_CURVE ( 'NONE', #57, #84, #117, .T. ) ;
#188 = PERSON_AND_ORGANIZATION ( #64, #9 ) ;
#189 = PRODUCT_DEFINITION ( 'UNKNOWN', '', #235, #33 ) ;
#190 = LOCAL_TIME ( 8, 55, 46.00000000000000000, #118 ) ;
#191 = FACE_OUTER_BOUND ( 'NONE', #143, .T. ) ;
#192 = PLANE ( 'NONE',  #71 ) ;
#193 = CARTESIAN_POINT ( 'NONE',  ( 12.73661044793252900, 19.27794392787277300, 1.192006129413331500 ) ) ;
#194 = DATE_AND_TIME ( #159, #157 ) ;
#195 = DIRECTION ( 'NONE',  ( 5.827942386483759700E-018, 2.717192996813919900E-034, 1.000000000000000000 ) ) ;
#196 = ORIENTED_EDGE ( 'NONE', *, *, #215, .F. ) ;
#197 = CARTESIAN_POINT ( 'NONE',  ( -19.19168343065659200, -6.444563532695615200, 0.5881190349903820900 ) ) ;
#198 =( GEOMETRIC_REPRESENTATION_CONTEXT ( 3 ) GLOBAL_UNCERTAINTY_ASSIGNED_CONTEXT ( ( #49 ) ) GLOBAL_UNIT_ASSIGNED_CONTEXT ( ( #1, #145, #48 ) ) REPRESENTATION_CONTEXT ( 'NONE', 'WORKASPACE' ) );
#199 = PERSON_AND_ORGANIZATION ( #64, #9 ) ;
#200 = APPROVAL_PERSON_ORGANIZATION ( #120, #92, #170 ) ;
#201 = EDGE_LOOP ( 'NONE', ( #224, #78 ) ) ;
#202 = CC_DESIGN_APPROVAL ( #149, ( #235 ) ) ;
#203 = APPROVAL_DATE_TIME ( #77, #92 ) ;
#204 = EDGE_CURVE ( 'NONE', #84, #136, #68, .T. ) ;
#205 = ADVANCED_FACE ( 'NONE', ( #128 ), #63, .T. ) ;
#206 = CARTESIAN_POINT ( 'NONE',  ( 8.382894646491301100E-014, -19.27794392787275200, 0.8974567486794149400 ) ) ;
#207 = CARTESIAN_POINT ( 'NONE',  ( -12.81043219508712700, -6.444563532695610800, -0.003760720939368430200 ) ) ;
#208 = PERSON_AND_ORGANIZATION ( #64, #9 ) ;
#209 = CARTESIAN_POINT ( 'NONE',  ( 7.303011083084541900E-014, 19.27794392787276900, 0.8974567486794149400 ) ) ;
#210 = ORIENTED_EDGE ( 'NONE', *, *, #58, .F. ) ;
#211 = CARTESIAN_POINT ( 'NONE',  ( 2.775557561562891400E-014, 6.444563532695624100, -0.3000173180475219100 ) ) ;
#212 = CARTESIAN_POINT ( 'NONE',  ( 6.408641741971281100, 6.444563532695625000, -0.3000173180475201300 ) ) ;
#213 = CARTESIAN_POINT ( 'NONE',  ( 3.469446951953614200E-014, -6.444563532695609900, -0.3000173180475205800 ) ) ;
#214 = CARTESIAN_POINT ( 'NONE',  ( -4.644732043023313800E-015, -8.881784197001250400E-016, 4.000000000000000000 ) ) ;
#215 = EDGE_CURVE ( 'NONE', #57, #86, #30, .T. ) ;
#216 = CIRCLE ( 'NONE', #79, 19.05000000000000100 ) ;
#217 = CIRCLE ( 'NONE', #102, 19.05000000000000100 ) ;
#218 = APPLICATION_CONTEXT ( 'configuration controlled 3d designs of mechanical parts and assemblies' ) ;
#219 = CC_DESIGN_DATE_AND_TIME_ASSIGNMENT ( #194, #65, ( #189 ) ) ;
#220 = ORIENTED_EDGE ( 'NONE', *, *, #62, .T. ) ;
#221 = AXIS2_PLACEMENT_3D ( 'NONE', #166, #111, #114 ) ;
#222 = EDGE_CURVE ( 'NONE', #84, #80, #231, .T. ) ;
#223 = COORDINATED_UNIVERSAL_TIME_OFFSET ( 2, 0, .AHEAD. ) ;
#224 = ORIENTED_EDGE ( 'NONE', *, *, #61, .F. ) ;
#225 = EDGE_CURVE ( 'NONE', #136, #57, #23, .T. ) ;
#226 = FACE_OUTER_BOUND ( 'NONE', #66, .T. ) ;
#227 = CARTESIAN_POINT ( 'NONE',  ( 6.371711127681645200, -19.27794392787274800, 0.8974567486794164900 ) ) ;
#228 = CC_DESIGN_PERSON_AND_ORGANIZATION_ASSIGNMENT ( #35, #115, ( #235 ) ) ;
#229 = CARTESIAN_POINT ( 'NONE',  ( -4.644732043023313800E-015, -8.881784197001250400E-016, 4.000000000000000000 ) ) ;
#230 = EDGE_CURVE ( 'NONE', #38, #86, #216, .T. ) ;
#231 = CIRCLE ( 'NONE', #40, 19.05000000000000100 ) ;
#232 = DIRECTION ( 'NONE',  ( 0.0000000000000000000, 0.0000000000000000000, 1.000000000000000000 ) ) ;
#233 = DIRECTION ( 'NONE',  ( -5.827942386483759700E-018, -2.717192996813919900E-034, -1.000000000000000000 ) ) ;
#234 = ORIENTED_EDGE ( 'NONE', *, *, #61, .T. ) ;
#235 = PRODUCT_DEFINITION_FORMATION_WITH_SPECIFIED_SOURCE ( 'ANY', '', #2, .NOT_KNOWN. ) ;
ENDSEC;
END-ISO-10303-21;
