ISO-10303-21;
HEADER;
FILE_DESCRIPTION (( 'STEP AP203' ),
    '1' );
FILE_NAME ('110-0421E BK7 pl-cx 38.1 F350.STEP',
    '2019-01-24T12:33:55',
    ( '' ),
    ( '' ),
    'SwSTEP 2.0',
    'SolidWorks 2017',
    '' );
FILE_SCHEMA (( 'CONFIG_CONTROL_DESIGN' ));
ENDSEC;

DATA;
#1 = DIRECTION ( 'NONE',  ( 3.200283699100447500E-016, -1.000000000000000000, 3.056781455465739200E-016 ) ) ;
#2 = CC_DESIGN_PERSON_AND_ORGANIZATION_ASSIGNMENT ( #16, #87, ( #201 ) ) ;
#3 = PERSON ( 'UNSPECIFIED', 'UNSPECIFIED', 'UNSPECIFIED', ('UNSPECIFIED'), ('UNSPECIFIED'), ('UNSPECIFIED') ) ;
#4 = DIRECTION ( 'NONE',  ( 1.000000000000000000, 0.0000000000000000000, 0.0000000000000000000 ) ) ;
#5 = AXIS2_PLACEMENT_3D ( 'NONE', #100, #137, #209 ) ;
#6 = LOCAL_TIME ( 14, 33, 55.00000000000000000, #94 ) ;
#7 = PRODUCT_DEFINITION ( 'UNKNOWN', '', #168, #101 ) ;
#8 = AXIS2_PLACEMENT_3D ( 'NONE', #191, #27, #78 ) ;
#9 = ORIENTED_EDGE ( 'NONE', *, *, #129, .F. ) ;
#10 = CARTESIAN_POINT ( 'NONE',  ( 12.72446272407935900, -19.27774255666373500, 1.362514218468777700 ) ) ;
#11 = CC_DESIGN_APPROVAL ( #206, ( #186 ) ) ;
#12 = CARTESIAN_POINT ( 'NONE',  ( -12.82096305542570000, 6.450211713186393900, -0.004378630062152711500 ) ) ;
#13 = CARTESIAN_POINT ( 'NONE',  ( -12.72446272407938900, -19.27774255666374300, 1.362514218468759100 ) ) ;
#14 = ORIENTED_EDGE ( 'NONE', *, *, #153, .T. ) ;
#15 = CARTESIAN_POINT ( 'NONE',  ( -19.05559148332248800, 19.27774255666374600, 2.034376688800132400 ) ) ;
#16 = PERSON_AND_ORGANIZATION ( #3, #63 ) ;
#17 = APPROVAL_DATE_TIME ( #38, #206 ) ;
#18 = ADVANCED_FACE ( 'NONE', ( #140 ), #131, .T. ) ;
#19 = ORIENTED_EDGE ( 'NONE', *, *, #144, .F. ) ;
#20 = DIRECTION ( 'NONE',  ( 0.0000000000000000000, 0.0000000000000000000, 1.000000000000000000 ) ) ;
#21 = DIRECTION ( 'NONE',  ( -0.0000000000000000000, -0.0000000000000000000, -1.000000000000000000 ) ) ;
#22 = DATE_AND_TIME ( #150, #6 ) ;
#23 = DIRECTION ( 'NONE',  ( -0.0000000000000000000, -0.0000000000000000000, -1.000000000000000000 ) ) ;
#24 = ADVANCED_BREP_SHAPE_REPRESENTATION ( '110-0421E BK7 pl-cx 38.1 F350', ( #42, #58 ), #223 ) ;
#25 = CARTESIAN_POINT ( 'NONE',  ( 19.20010610307602100, 6.450211713186404500, 0.6725791399617636600 ) ) ;
#26 = EDGE_LOOP ( 'NONE', ( #83, #203, #149, #9, #135 ) ) ;
#27 = DIRECTION ( 'NONE',  ( -0.0000000000000000000, -0.0000000000000000000, -1.000000000000000000 ) ) ;
#28 = FACE_OUTER_BOUND ( 'NONE', #26, .T. ) ;
#29 = DATE_TIME_ROLE ( 'creation_date' ) ;
#30 = SECURITY_CLASSIFICATION_LEVEL ( 'unclassified' ) ;
#31 = CYLINDRICAL_SURFACE ( 'NONE', #40, 19.05000000000000100 ) ;
#32 = DIRECTION ( 'NONE',  ( 1.000000000000000000, 0.0000000000000000000, 0.0000000000000000000 ) ) ;
#33 = CARTESIAN_POINT ( 'NONE',  ( 6.938893903907228400E-014, 6.450211713186395600, -0.3433309946665223400 ) ) ;
#34 = LOCAL_TIME ( 14, 33, 55.00000000000000000, #60 ) ;
#35 = DIRECTION ( 'NONE',  ( 0.0000000000000000000, 0.0000000000000000000, 1.000000000000000000 ) ) ;
#36 = CIRCLE ( 'NONE', #116, 19.05000000000000100 ) ;
#37 = FACE_OUTER_BOUND ( 'NONE', #193, .T. ) ;
#38 = DATE_AND_TIME ( #146, #167 ) ;
#39 = EDGE_CURVE ( 'NONE', #235, #117, #77, .T. ) ;
#40 = AXIS2_PLACEMENT_3D ( 'NONE', #216, #234, #219 ) ;
#41 = CC_DESIGN_PERSON_AND_ORGANIZATION_ASSIGNMENT ( #204, #176, ( #7 ) ) ;
#42 = MANIFOLD_SOLID_BREP ( 'Imported1', #179 ) ;
#43 = ORIENTED_EDGE ( 'NONE', *, *, #164, .F. ) ;
#44 = PERSON_AND_ORGANIZATION ( #3, #63 ) ;
#45 = CARTESIAN_POINT ( 'NONE',  ( 12.82096305542565600, -6.450211713186376100, -0.004378630062163012300 ) ) ;
#46 = CC_DESIGN_SECURITY_CLASSIFICATION ( #186, ( #168 ) ) ;
#47 = VERTEX_POINT ( 'NONE', #113 ) ;
#48 = DIRECTION ( 'NONE',  ( 0.0000000000000000000, 0.0000000000000000000, 1.000000000000000000 ) ) ;
#49 = ORIENTED_EDGE ( 'NONE', *, *, #61, .T. ) ;
#50 = APPROVAL_STATUS ( 'not_yet_approved' ) ;
#51 = CARTESIAN_POINT ( 'NONE',  ( 19.04999999999999700, -8.881784197001250400E-016, 1.001944916341910100 ) ) ;
#52 = APPLICATION_PROTOCOL_DEFINITION ( 'international standard', 'config_control_design', 1994, #163 ) ;
#53 = CARTESIAN_POINT ( 'NONE',  ( 0.0000000000000000000, 39.06600000000000300, 3.000000000000000000 ) ) ;
#54 = CARTESIAN_POINT ( 'NONE',  ( -4.662936703425659800E-015, -8.881784197001250400E-016, 3.000000000000000000 ) ) ;
#55 = LOCAL_TIME ( 14, 33, 55.00000000000000000, #112 ) ;
#56 = AXIS2_PLACEMENT_3D ( 'NONE', #233, #35, #122 ) ;
#57 = ADVANCED_FACE ( 'NONE', ( #232 ), #90, .T. ) ;
#58 = AXIS2_PLACEMENT_3D ( 'NONE', #105, #213, #32 ) ;
#59 = LOCAL_TIME ( 14, 33, 55.00000000000000000, #104 ) ;
#60 = COORDINATED_UNIVERSAL_TIME_OFFSET ( 2, 0, .AHEAD. ) ;
#61 = EDGE_CURVE ( 'NONE', #117, #157, #174, .T. ) ;
#62 = ORIENTED_EDGE ( 'NONE', *, *, #228, .F. ) ;
#63 = ORGANIZATION ( 'UNSPECIFIED', 'UNSPECIFIED', '' ) ;
#64 = CARTESIAN_POINT ( 'NONE',  ( 6.366678140534085100, 19.27774255666376000, 1.026113067478688200 ) ) ;
#65 = CARTESIAN_POINT ( 'NONE',  ( 19.05559148332233800, -19.27774255666372800, 2.034376688800105800 ) ) ;
#66 = APPROVAL_STATUS ( 'not_yet_approved' ) ;
#67 = ORIENTED_EDGE ( 'NONE', *, *, #39, .T. ) ;
#68 = CARTESIAN_POINT ( 'NONE',  ( -4.662936703425659800E-015, -8.881784197001250400E-016, 3.000000000000000000 ) ) ;
#69 = ORIENTED_EDGE ( 'NONE', *, *, #61, .F. ) ;
#70 = DATE_AND_TIME ( #143, #59 ) ;
#71 = PRODUCT_RELATED_PRODUCT_CATEGORY ( 'detail', '', ( #201 ) ) ;
#72 = VERTEX_POINT ( 'NONE', #98 ) ;
#73 = APPROVAL_PERSON_ORGANIZATION ( #86, #89, #155 ) ;
#74 = ORIENTED_EDGE ( 'NONE', *, *, #126, .T. ) ;
#75 = CC_DESIGN_APPROVAL ( #166, ( #7 ) ) ;
#76 = CARTESIAN_POINT ( 'NONE',  ( 1.112325151050980400E-013, -6.450211713186378800, -0.3433309946665444900 ) ) ;
#77 = CIRCLE ( 'NONE', #8, 19.05000000000000100 ) ;
#78 = DIRECTION ( 'NONE',  ( 1.000000000000000000, 0.0000000000000000000, 0.0000000000000000000 ) ) ;
#79 = PERSON_AND_ORGANIZATION_ROLE ( 'classification_officer' ) ;
#80 = CARTESIAN_POINT ( 'NONE',  ( 7.285838599102591100E-014, -6.450211713186380500, -0.3433309946665500900 ) ) ;
#81 = PERSON_AND_ORGANIZATION_ROLE ( 'design_supplier' ) ;
#82 = CARTESIAN_POINT ( 'NONE',  ( -4.662936703425659800E-015, -8.881784197001250400E-016, 1.001944916341910100 ) ) ;
#83 = ORIENTED_EDGE ( 'NONE', *, *, #153, .F. ) ;
#84 =( LENGTH_UNIT ( ) NAMED_UNIT ( * ) SI_UNIT ( .MILLI., .METRE. ) );
#85 = DIRECTION ( 'NONE',  ( -0.0000000000000000000, -0.0000000000000000000, -1.000000000000000000 ) ) ;
#86 = PERSON_AND_ORGANIZATION ( #3, #63 ) ;
#87 = PERSON_AND_ORGANIZATION_ROLE ( 'design_owner' ) ;
#88 = LINE ( 'NONE', #162, #183 ) ;
#89 = APPROVAL ( #66, 'UNSPECIFIED' ) ;
#90 =( BOUNDED_SURFACE ( )  B_SPLINE_SURFACE ( 3, 3, ( 
 ( #118, #13, #189, #160 ),
 ( #156, #229, #192, #80 ),
 ( #210, #12, #136, #33 ),
 ( #15, #207, #99, #102 ) ),
 .UNSPECIFIED., .F., .F., .F. ) 
 B_SPLINE_SURFACE_WITH_KNOTS ( ( 4, 4 ),
 ( 4, 4 ),
 ( 0.0000000000000000000, 1.000000000000000000 ),
 ( 0.0000000000000000000, 1.000000000000000000 ),
 .UNSPECIFIED. ) 
 GEOMETRIC_REPRESENTATION_ITEM ( )  RATIONAL_B_SPLINE_SURFACE ( (
 ( 1.000000000000000000, 0.9990687391663897200, 0.9990687391663897200, 1.000000000000000000),
 ( 0.9962330650973616500, 0.9953053122626889200, 0.9953053122626889200, 0.9962330650973616500),
 ( 0.9962330650973616500, 0.9953053122626889200, 0.9953053122626889200, 0.9962330650973616500),
 ( 1.000000000000000000, 0.9990687391663897200, 0.9990687391663897200, 1.000000000000000000) ) ) 
 REPRESENTATION_ITEM ( '' )  SURFACE ( )  );
#91 = APPROVAL_DATE_TIME ( #22, #89 ) ;
#92 = CARTESIAN_POINT ( 'NONE',  ( 1.022645416186340200E-013, 19.05000000000007500, 1.001944916341917000 ) ) ;
#93 = EDGE_LOOP ( 'NONE', ( #185, #43 ) ) ;
#94 = COORDINATED_UNIVERSAL_TIME_OFFSET ( 2, 0, .AHEAD. ) ;
#95 = AXIS2_PLACEMENT_3D ( 'NONE', #54, #23, #4 ) ;
#96 = CARTESIAN_POINT ( 'NONE',  ( 6.366678140534097500, -19.27774255666373500, 1.026113067478660500 ) ) ;
#97 = CARTESIAN_POINT ( 'NONE',  ( 19.20010610307602800, -6.450211713186372500, 0.6725791399617355700 ) ) ;
#98 = CARTESIAN_POINT ( 'NONE',  ( -19.05000000000000400, 1.444773732675583000E-015, 1.001944916341910100 ) ) ;
#99 = CARTESIAN_POINT ( 'NONE',  ( -6.366678140534029100, 19.27774255666375300, 1.026113067478675800 ) ) ;
#100 = CARTESIAN_POINT ( 'NONE',  ( -4.662936703425659800E-015, -8.881784197001250400E-016, 1.001944916341910100 ) ) ;
#101 = DESIGN_CONTEXT ( 'detailed design', #175, 'design' ) ;
#102 = CARTESIAN_POINT ( 'NONE',  ( 6.245004513516505500E-014, 19.27774255666375300, 1.026113067478678300 ) ) ;
#103 = CC_DESIGN_PERSON_AND_ORGANIZATION_ASSIGNMENT ( #44, #79, ( #186 ) ) ;
#104 = COORDINATED_UNIVERSAL_TIME_OFFSET ( 2, 0, .AHEAD. ) ;
#105 = CARTESIAN_POINT ( 'NONE',  ( 0.0000000000000000000, 0.0000000000000000000, 0.0000000000000000000 ) ) ;
#106 = APPROVAL_PERSON_ORGANIZATION ( #199, #166, #138 ) ;
#107 = PERSON_AND_ORGANIZATION ( #3, #63 ) ;
#108 = EDGE_LOOP ( 'NONE', ( #130, #145, #14 ) ) ;
#109 = CALENDAR_DATE ( 2019, 24, 1 ) ;
#110 = EDGE_CURVE ( 'NONE', #47, #195, #215, .T. ) ;
#111 = AXIS2_PLACEMENT_3D ( 'NONE', #82, #212, #231 ) ;
#112 = COORDINATED_UNIVERSAL_TIME_OFFSET ( 2, 0, .AHEAD. ) ;
#113 = CARTESIAN_POINT ( 'NONE',  ( 19.04999999999999700, -8.881784197001250400E-016, 3.000000000000000000 ) ) ;
#114 = CARTESIAN_POINT ( 'NONE',  ( 6.414962029878528100, -6.450211713186377900, -0.3433309946665406600 ) ) ;
#115 = CIRCLE ( 'NONE', #200, 181.6000000000000200 ) ;
#116 = AXIS2_PLACEMENT_3D ( 'NONE', #128, #21, #147 ) ;
#117 = VERTEX_POINT ( 'NONE', #51 ) ;
#118 = CARTESIAN_POINT ( 'NONE',  ( -19.05559148332247700, -19.27774255666374300, 2.034376688800104900 ) ) ;
#119 = CARTESIAN_POINT ( 'NONE',  ( -19.05000000000000400, 1.444773732675583000E-015, 3.000000000000000000 ) ) ;
#120 = SHAPE_DEFINITION_REPRESENTATION ( #202, #24 ) ;
#121 = CC_DESIGN_DATE_AND_TIME_ASSIGNMENT ( #70, #159, ( #186 ) ) ;
#122 = DIRECTION ( 'NONE',  ( 1.000000000000000000, 0.0000000000000000000, 0.0000000000000000000 ) ) ;
#123 = PLANE ( 'NONE',  #222 ) ;
#124 = CARTESIAN_POINT ( 'NONE',  ( 0.0000000000000000000, 1.421085471520200100E-014, 181.6000000000000200 ) ) ;
#125 = EDGE_LOOP ( 'NONE', ( #49, #74, #67 ) ) ;
#126 = EDGE_CURVE ( 'NONE', #157, #235, #115, .T. ) ;
#127 = FACE_OUTER_BOUND ( 'NONE', #93, .T. ) ;
#128 = CARTESIAN_POINT ( 'NONE',  ( -4.662936703425659800E-015, -8.881784197001250400E-016, 1.001944916341910100 ) ) ;
#129 = EDGE_CURVE ( 'NONE', #117, #47, #225, .T. ) ;
#130 = ORIENTED_EDGE ( 'NONE', *, *, #126, .F. ) ;
#131 =( BOUNDED_SURFACE ( )  B_SPLINE_SURFACE ( 3, 3, ( 
 ( #151, #96, #10, #65 ),
 ( #76, #114, #45, #97 ),
 ( #173, #226, #134, #25 ),
 ( #187, #64, #205, #224 ) ),
 .UNSPECIFIED., .F., .F., .F. ) 
 B_SPLINE_SURFACE_WITH_KNOTS ( ( 4, 4 ),
 ( 4, 4 ),
 ( 0.0000000000000000000, 1.000000000000000000 ),
 ( 0.0000000000000000000, 1.000000000000000000 ),
 .UNSPECIFIED. ) 
 GEOMETRIC_REPRESENTATION_ITEM ( )  RATIONAL_B_SPLINE_SURFACE ( (
 ( 1.000000000000000000, 0.9990687391663897200, 0.9990687391663897200, 1.000000000000000000),
 ( 0.9962330650973616500, 0.9953053122626889200, 0.9953053122626889200, 0.9962330650973616500),
 ( 0.9962330650973616500, 0.9953053122626889200, 0.9953053122626889200, 0.9962330650973616500),
 ( 1.000000000000000000, 0.9990687391663897200, 0.9990687391663897200, 1.000000000000000000) ) ) 
 REPRESENTATION_ITEM ( '' )  SURFACE ( )  );
#132 = CYLINDRICAL_SURFACE ( 'NONE', #56, 19.05000000000000100 ) ;
#133 = PERSON_AND_ORGANIZATION ( #3, #63 ) ;
#134 = CARTESIAN_POINT ( 'NONE',  ( 12.82096305542565100, 6.450211713186401900, -0.004378630062134821300 ) ) ;
#135 = ORIENTED_EDGE ( 'NONE', *, *, #39, .F. ) ;
#136 = CARTESIAN_POINT ( 'NONE',  ( -6.414962029878455300, 6.450211713186395600, -0.3433309946665247800 ) ) ;
#137 = DIRECTION ( 'NONE',  ( -0.0000000000000000000, -0.0000000000000000000, -1.000000000000000000 ) ) ;
#138 = APPROVAL_ROLE ( '' ) ;
#139 = CC_DESIGN_APPROVAL ( #89, ( #168 ) ) ;
#140 = FACE_OUTER_BOUND ( 'NONE', #125, .T. ) ;
#141 = DATE_AND_TIME ( #196, #34 ) ;
#142 = DIRECTION ( 'NONE',  ( 1.000000000000000000, 0.0000000000000000000, -0.0000000000000000000 ) ) ;
#143 = CALENDAR_DATE ( 2019, 24, 1 ) ;
#144 = EDGE_CURVE ( 'NONE', #72, #195, #88, .T. ) ;
#145 = ORIENTED_EDGE ( 'NONE', *, *, #228, .T. ) ;
#146 = CALENDAR_DATE ( 2019, 24, 1 ) ;
#147 = DIRECTION ( 'NONE',  ( 1.000000000000000000, 0.0000000000000000000, 0.0000000000000000000 ) ) ;
#148 = AXIS2_PLACEMENT_3D ( 'NONE', #68, #85, #214 ) ;
#149 = ORIENTED_EDGE ( 'NONE', *, *, #164, .T. ) ;
#150 = CALENDAR_DATE ( 2019, 24, 1 ) ;
#151 = CARTESIAN_POINT ( 'NONE',  ( 1.145160053997232500E-013, -19.27774255666373500, 1.026113067478656700 ) ) ;
#152 = DATE_AND_TIME ( #109, #55 ) ;
#153 = EDGE_CURVE ( 'NONE', #72, #235, #36, .T. ) ;
#154 = CARTESIAN_POINT ( 'NONE',  ( 19.04999999999999700, -8.881784197001250400E-016, 1.001944916341910100 ) ) ;
#155 = APPROVAL_ROLE ( '' ) ;
#156 = CARTESIAN_POINT ( 'NONE',  ( -19.20010610307618400, -6.450211713186385900, 0.6725791399617343500 ) ) ;
#157 = VERTEX_POINT ( 'NONE', #197 ) ;
#158 = APPROVAL_DATE_TIME ( #141, #166 ) ;
#159 = DATE_TIME_ROLE ( 'classification_date' ) ;
#160 = CARTESIAN_POINT ( 'NONE',  ( 7.632783294297951200E-014, -19.27774255666373500, 1.026113067478650500 ) ) ;
#161 =( NAMED_UNIT ( * ) SI_UNIT ( $, .STERADIAN. ) SOLID_ANGLE_UNIT ( ) );
#162 = CARTESIAN_POINT ( 'NONE',  ( -19.05000000000000400, 1.444773732675583000E-015, 1.001944916341910100 ) ) ;
#163 = APPLICATION_CONTEXT ( 'configuration controlled 3d designs of mechanical parts and assemblies' ) ;
#164 = EDGE_CURVE ( 'NONE', #195, #47, #218, .T. ) ;
#165 = ORIENTED_EDGE ( 'NONE', *, *, #110, .T. ) ;
#166 = APPROVAL ( #194, 'UNSPECIFIED' ) ;
#167 = LOCAL_TIME ( 14, 33, 55.00000000000000000, #171 ) ;
#168 = PRODUCT_DEFINITION_FORMATION_WITH_SPECIFIED_SOURCE ( 'ANY', '', #201, .NOT_KNOWN. ) ;
#169 = UNCERTAINTY_MEASURE_WITH_UNIT (LENGTH_MEASURE( 1.000000000000000100E-005 ), #84, 'distance_accuracy_value', 'NONE');
#170 = CIRCLE ( 'NONE', #5, 19.05000000000000100 ) ;
#171 = COORDINATED_UNIVERSAL_TIME_OFFSET ( 2, 0, .AHEAD. ) ;
#172 = CC_DESIGN_DATE_AND_TIME_ASSIGNMENT ( #152, #29, ( #7 ) ) ;
#173 = CARTESIAN_POINT ( 'NONE',  ( 1.071040136248065900E-013, 6.450211713186397400, -0.3433309946665159500 ) ) ;
#174 = CIRCLE ( 'NONE', #111, 19.05000000000000100 ) ;
#175 = APPLICATION_CONTEXT ( 'configuration controlled 3d designs of mechanical parts and assemblies' ) ;
#176 = PERSON_AND_ORGANIZATION_ROLE ( 'creator' ) ;
#177 = APPLICATION_PROTOCOL_DEFINITION ( 'international standard', 'config_control_design', 1994, #175 ) ;
#178 = CC_DESIGN_PERSON_AND_ORGANIZATION_ASSIGNMENT ( #133, #81, ( #168 ) ) ;
#179 = CLOSED_SHELL ( 'NONE', ( #18, #182, #57, #181, #217 ) ) ;
#180 = MECHANICAL_CONTEXT ( 'NONE', #163, 'mechanical' ) ;
#181 = ADVANCED_FACE ( 'NONE', ( #37 ), #31, .T. ) ;
#182 = ADVANCED_FACE ( 'NONE', ( #28 ), #132, .T. ) ;
#183 = VECTOR ( 'NONE', #20, 1000.000000000000000 ) ;
#184 = APPROVAL_PERSON_ORGANIZATION ( #107, #206, #208 ) ;
#185 = ORIENTED_EDGE ( 'NONE', *, *, #110, .F. ) ;
#186 = SECURITY_CLASSIFICATION ( '', '', #30 ) ;
#187 = CARTESIAN_POINT ( 'NONE',  ( 1.021771563478140600E-013, 19.27774255666375300, 1.026113067478684500 ) ) ;
#188 = PERSON_AND_ORGANIZATION ( #3, #63 ) ;
#189 = CARTESIAN_POINT ( 'NONE',  ( -6.366678140534015800, -19.27774255666374300, 1.026113067478648500 ) ) ;
#190 = PERSON_AND_ORGANIZATION_ROLE ( 'creator' ) ;
#191 = CARTESIAN_POINT ( 'NONE',  ( -4.662936703425659800E-015, -8.881784197001250400E-016, 1.001944916341910100 ) ) ;
#192 = CARTESIAN_POINT ( 'NONE',  ( -6.414962029878452700, -6.450211713186383200, -0.3433309946665526500 ) ) ;
#193 = EDGE_LOOP ( 'NONE', ( #19, #62, #69, #227, #165 ) ) ;
#194 = APPROVAL_STATUS ( 'not_yet_approved' ) ;
#195 = VERTEX_POINT ( 'NONE', #119 ) ;
#196 = CALENDAR_DATE ( 2019, 24, 1 ) ;
#197 = CARTESIAN_POINT ( 'NONE',  ( 1.144576225122067700E-013, -19.05000000000006100, 1.001944916341917000 ) ) ;
#198 = DIRECTION ( 'NONE',  ( 1.000000000000000000, 3.200283699100450000E-016, 6.000124531530780400E-016 ) ) ;
#199 = PERSON_AND_ORGANIZATION ( #3, #63 ) ;
#200 = AXIS2_PLACEMENT_3D ( 'NONE', #124, #198, #1 ) ;
#201 = PRODUCT ( '110-0421E BK7 pl-cx 38.1 F350', '110-0421E BK7 pl-cx 38.1 F350', '', ( #180 ) ) ;
#202 = PRODUCT_DEFINITION_SHAPE ( 'NONE', 'NONE',  #7 ) ;
#203 = ORIENTED_EDGE ( 'NONE', *, *, #144, .T. ) ;
#204 = PERSON_AND_ORGANIZATION ( #3, #63 ) ;
#205 = CARTESIAN_POINT ( 'NONE',  ( 12.72446272407934100, 19.27774255666376000, 1.362514218468805000 ) ) ;
#206 = APPROVAL ( #50, 'UNSPECIFIED' ) ;
#207 = CARTESIAN_POINT ( 'NONE',  ( -12.72446272407940000, 19.27774255666375300, 1.362514218468787300 ) ) ;
#208 = APPROVAL_ROLE ( '' ) ;
#209 = DIRECTION ( 'NONE',  ( 1.000000000000000000, 0.0000000000000000000, 0.0000000000000000000 ) ) ;
#210 = CARTESIAN_POINT ( 'NONE',  ( -19.20010610307618700, 6.450211713186391200, 0.6725791399617630000 ) ) ;
#211 = DIRECTION ( 'NONE',  ( 0.0000000000000000000, 0.0000000000000000000, 1.000000000000000000 ) ) ;
#212 = DIRECTION ( 'NONE',  ( -0.0000000000000000000, -0.0000000000000000000, -1.000000000000000000 ) ) ;
#213 = DIRECTION ( 'NONE',  ( 0.0000000000000000000, 0.0000000000000000000, 1.000000000000000000 ) ) ;
#214 = DIRECTION ( 'NONE',  ( 1.000000000000000000, 0.0000000000000000000, 0.0000000000000000000 ) ) ;
#215 = CIRCLE ( 'NONE', #148, 19.05000000000000100 ) ;
#216 = CARTESIAN_POINT ( 'NONE',  ( -4.662936703425659800E-015, -8.881784197001250400E-016, 1.001944916341910100 ) ) ;
#217 = ADVANCED_FACE ( 'NONE', ( #127 ), #123, .T. ) ;
#218 = CIRCLE ( 'NONE', #95, 19.05000000000000100 ) ;
#219 = DIRECTION ( 'NONE',  ( 1.000000000000000000, 0.0000000000000000000, 0.0000000000000000000 ) ) ;
#220 = CC_DESIGN_PERSON_AND_ORGANIZATION_ASSIGNMENT ( #188, #190, ( #168 ) ) ;
#221 = VECTOR ( 'NONE', #48, 1000.000000000000000 ) ;
#222 = AXIS2_PLACEMENT_3D ( 'NONE', #53, #211, #142 ) ;
#223 =( GEOMETRIC_REPRESENTATION_CONTEXT ( 3 ) GLOBAL_UNCERTAINTY_ASSIGNED_CONTEXT ( ( #169 ) ) GLOBAL_UNIT_ASSIGNED_CONTEXT ( ( #84, #230, #161 ) ) REPRESENTATION_CONTEXT ( 'NONE', 'WORKASPACE' ) );
#224 = CARTESIAN_POINT ( 'NONE',  ( 19.05559148332232100, 19.27774255666376000, 2.034376688800133300 ) ) ;
#225 = LINE ( 'NONE', #154, #221 ) ;
#226 = CARTESIAN_POINT ( 'NONE',  ( 6.414962029878521900, 6.450211713186401000, -0.3433309946665121200 ) ) ;
#227 = ORIENTED_EDGE ( 'NONE', *, *, #129, .T. ) ;
#228 = EDGE_CURVE ( 'NONE', #157, #72, #170, .T. ) ;
#229 = CARTESIAN_POINT ( 'NONE',  ( -12.82096305542569700, -6.450211713186385000, -0.004378630062181226000 ) ) ;
#230 =( NAMED_UNIT ( * ) PLANE_ANGLE_UNIT ( ) SI_UNIT ( $, .RADIAN. ) );
#231 = DIRECTION ( 'NONE',  ( 1.000000000000000000, 0.0000000000000000000, 0.0000000000000000000 ) ) ;
#232 = FACE_OUTER_BOUND ( 'NONE', #108, .T. ) ;
#233 = CARTESIAN_POINT ( 'NONE',  ( -4.662936703425659800E-015, -8.881784197001250400E-016, 1.001944916341910100 ) ) ;
#234 = DIRECTION ( 'NONE',  ( 0.0000000000000000000, 0.0000000000000000000, 1.000000000000000000 ) ) ;
#235 = VERTEX_POINT ( 'NONE', #92 ) ;
ENDSEC;
END-ISO-10303-21;
