ISO-10303-21;
HEADER;
FILE_DESCRIPTION (( 'STEP AP203' ),
    '1' );
FILE_NAME ('110-0419E BK7 pl-cx 38.1 F300.STEP',
    '2018-12-21T06:56:03',
    ( '' ),
    ( '' ),
    'SwSTEP 2.0',
    'SolidWorks 2017',
    '' );
FILE_SCHEMA (( 'CONFIG_CONTROL_DESIGN' ));
ENDSEC;

DATA;
#1 = PERSON_AND_ORGANIZATION ( #4, #79 ) ;
#2 = DIRECTION ( 'NONE',  ( 0.0000000000000000000, 0.0000000000000000000, 1.000000000000000000 ) ) ;
#3 = ORIENTED_EDGE ( 'NONE', *, *, #162, .T. ) ;
#4 = PERSON ( 'UNSPECIFIED', 'UNSPECIFIED', 'UNSPECIFIED', ('UNSPECIFIED'), ('UNSPECIFIED'), ('UNSPECIFIED') ) ;
#5 =( NAMED_UNIT ( * ) PLANE_ANGLE_UNIT ( ) SI_UNIT ( $, .RADIAN. ) );
#6 =( NAMED_UNIT ( * ) SI_UNIT ( $, .STERADIAN. ) SOLID_ANGLE_UNIT ( ) );
#7 = APPROVAL ( #28, 'UNSPECIFIED' ) ;
#8 = ADVANCED_FACE ( 'NONE', ( #29 ), #216, .T. ) ;
#9 = AXIS2_PLACEMENT_3D ( 'NONE', #232, #71, #121 ) ;
#10 = ORIENTED_EDGE ( 'NONE', *, *, #186, .T. ) ;
#11 = PERSON_AND_ORGANIZATION ( #4, #79 ) ;
#12 = EDGE_LOOP ( 'NONE', ( #83, #73, #206 ) ) ;
#13 = COORDINATED_UNIVERSAL_TIME_OFFSET ( 2, 0, .AHEAD. ) ;
#14 = FACE_OUTER_BOUND ( 'NONE', #25, .T. ) ;
#15 = CARTESIAN_POINT ( 'NONE',  ( -12.83732062512299900, -6.458984092853988600, -0.005258353714361575400 ) ) ;
#16 = CARTESIAN_POINT ( 'NONE',  ( -4.662936703425659800E-015, -8.881784197001250400E-016, 4.000000000000000000 ) ) ;
#17 = CARTESIAN_POINT ( 'NONE',  ( 6.358868528679559000, 19.27743019142492300, 1.198767216013640900 ) ) ;
#18 = CARTESIAN_POINT ( 'NONE',  ( -19.01607993466652100, 19.27743019142492300, 2.374253504402512600 ) ) ;
#19 = EDGE_CURVE ( 'NONE', #58, #62, #140, .T. ) ;
#20 = DIRECTION ( 'NONE',  ( 1.000000000000000000, 0.0000000000000000000, 0.0000000000000000000 ) ) ;
#21 = CARTESIAN_POINT ( 'NONE',  ( 12.70562269539412400, -19.27743019142488700, 1.591094263669113400 ) ) ;
#22 = CALENDAR_DATE ( 2018, 21, 12 ) ;
#23 = DIRECTION ( 'NONE',  ( 0.0000000000000000000, 0.0000000000000000000, 1.000000000000000000 ) ) ;
#24 = COORDINATED_UNIVERSAL_TIME_OFFSET ( 2, 0, .AHEAD. ) ;
#25 = EDGE_LOOP ( 'NONE', ( #94, #110, #115, #142, #178 ) ) ;
#26 = DIRECTION ( 'NONE',  ( 1.000000000000000000, 0.0000000000000000000, 0.0000000000000000000 ) ) ;
#27 = APPROVAL_STATUS ( 'not_yet_approved' ) ;
#28 = APPROVAL_STATUS ( 'not_yet_approved' ) ;
#29 = FACE_OUTER_BOUND ( 'NONE', #12, .T. ) ;
#30 = ADVANCED_FACE ( 'NONE', ( #14 ), #113, .T. ) ;
#31 = CARTESIAN_POINT ( 'NONE',  ( -6.424780278203527900, -6.458984092853988600, -0.4016519993785420100 ) ) ;
#32 = CARTESIAN_POINT ( 'NONE',  ( 4.263256414560599900E-014, 19.27743019142492300, 1.198767216013640900 ) ) ;
#33 = CARTESIAN_POINT ( 'NONE',  ( 4.263256414560599900E-014, 6.458984092854024100, -0.4016519993786062900 ) ) ;
#34 = CARTESIAN_POINT ( 'NONE',  ( -4.662936703425659800E-015, -8.881784197001250400E-016, 1.170541994087150000 ) ) ;
#35 = CARTESIAN_POINT ( 'NONE',  ( 0.0000000000000000000, 39.06600000000000300, 4.000000000000000000 ) ) ;
#36 = CARTESIAN_POINT ( 'NONE',  ( 19.04999999999999700, -8.881784197001250400E-016, 1.170541994087150000 ) ) ;
#37 = LOCAL_TIME ( 8, 56, 3.000000000000000000, #80 ) ;
#38 = DIRECTION ( 'NONE',  ( 0.0000000000000000000, 0.0000000000000000000, 1.000000000000000000 ) ) ;
#39 = DIRECTION ( 'NONE',  ( 0.0000000000000000000, 0.0000000000000000000, 1.000000000000000000 ) ) ;
#40 = APPROVAL_DATE_TIME ( #184, #234 ) ;
#41 = DATE_TIME_ROLE ( 'classification_date' ) ;
#42 = SECURITY_CLASSIFICATION_LEVEL ( 'unclassified' ) ;
#43 = PERSON_AND_ORGANIZATION_ROLE ( 'creator' ) ;
#44 = CIRCLE ( 'NONE', #90, 19.05000000000000100 ) ;
#45 = AXIS2_PLACEMENT_3D ( 'NONE', #35, #106, #158 ) ;
#46 = CARTESIAN_POINT ( 'NONE',  ( -19.21318781509033300, -6.458984092853989400, 0.7860185883804869900 ) ) ;
#47 = CARTESIAN_POINT ( 'NONE',  ( -6.358868528679548300, -19.27743019142488700, 1.198767216013708600 ) ) ;
#48 = CARTESIAN_POINT ( 'NONE',  ( -19.21318781509033300, 6.458984092854024100, 0.7860185883804630100 ) ) ;
#49 = EDGE_LOOP ( 'NONE', ( #154, #135, #230, #10, #66 ) ) ;
#50 = ORIENTED_EDGE ( 'NONE', *, *, #72, .T. ) ;
#51 = AXIS2_PLACEMENT_3D ( 'NONE', #190, #20, #105 ) ;
#52 = PERSON_AND_ORGANIZATION ( #4, #79 ) ;
#53 = VECTOR ( 'NONE', #2, 1000.000000000000000 ) ;
#54 = UNCERTAINTY_MEASURE_WITH_UNIT (LENGTH_MEASURE( 1.000000000000000100E-005 ), #114, 'distance_accuracy_value', 'NONE');
#55 = CC_DESIGN_PERSON_AND_ORGANIZATION_ASSIGNMENT ( #11, #59, ( #109 ) ) ;
#56 = VERTEX_POINT ( 'NONE', #157 ) ;
#57 = LOCAL_TIME ( 8, 56, 3.000000000000000000, #13 ) ;
#58 = VERTEX_POINT ( 'NONE', #170 ) ;
#59 = PERSON_AND_ORGANIZATION_ROLE ( 'classification_officer' ) ;
#60 = APPLICATION_CONTEXT ( 'configuration controlled 3d designs of mechanical parts and assemblies' ) ;
#61 = VERTEX_POINT ( 'NONE', #208 ) ;
#62 = VERTEX_POINT ( 'NONE', #235 ) ;
#63 = AXIS2_PLACEMENT_3D ( 'NONE', #138, #39, #26 ) ;
#64 = FACE_OUTER_BOUND ( 'NONE', #179, .T. ) ;
#65 = AXIS2_PLACEMENT_3D ( 'NONE', #160, #108, #137 ) ;
#66 = ORIENTED_EDGE ( 'NONE', *, *, #68, .T. ) ;
#67 = CARTESIAN_POINT ( 'NONE',  ( -12.83732062512299700, 6.458984092854025900, -0.005258353714385644700 ) ) ;
#68 = EDGE_CURVE ( 'NONE', #56, #185, #116, .T. ) ;
#69 = CARTESIAN_POINT ( 'NONE',  ( -6.424780278203524400, 6.458984092854025900, -0.4016519993785659400 ) ) ;
#70 = DESIGN_CONTEXT ( 'detailed design', #149, 'design' ) ;
#71 = DIRECTION ( 'NONE',  ( -0.0000000000000000000, -0.0000000000000000000, -1.000000000000000000 ) ) ;
#72 = EDGE_CURVE ( 'NONE', #58, #61, #85, .T. ) ;
#73 = ORIENTED_EDGE ( 'NONE', *, *, #19, .T. ) ;
#74 = DATE_AND_TIME ( #92, #182 ) ;
#75 = CARTESIAN_POINT ( 'NONE',  ( -4.662936703425659800E-015, -8.881784197001250400E-016, 4.000000000000000000 ) ) ;
#76 = APPLICATION_PROTOCOL_DEFINITION ( 'international standard', 'config_control_design', 1994, #149 ) ;
#77 = CYLINDRICAL_SURFACE ( 'NONE', #205, 19.05000000000000100 ) ;
#78 = AXIS2_PLACEMENT_3D ( 'NONE', #16, #173, #122 ) ;
#79 = ORGANIZATION ( 'UNSPECIFIED', 'UNSPECIFIED', '' ) ;
#80 = COORDINATED_UNIVERSAL_TIME_OFFSET ( 2, 0, .AHEAD. ) ;
#81 = CARTESIAN_POINT ( 'NONE',  ( 0.0000000000000000000, -19.27743019142488400, 1.198767216013706800 ) ) ;
#82 = CC_DESIGN_SECURITY_CLASSIFICATION ( #109, ( #145 ) ) ;
#83 = ORIENTED_EDGE ( 'NONE', *, *, #72, .F. ) ;
#84 = PERSON_AND_ORGANIZATION ( #4, #79 ) ;
#85 = CIRCLE ( 'NONE', #51, 155.5999999999999900 ) ;
#86 = CARTESIAN_POINT ( 'NONE',  ( 12.83732062512297600, -6.458984092853989400, -0.005258353714400715100 ) ) ;
#87 = CARTESIAN_POINT ( 'NONE',  ( -6.358868528679549200, 19.27743019142492300, 1.198767216013680900 ) ) ;
#88 = CARTESIAN_POINT ( 'NONE',  ( 12.83732062512297900, 6.458984092854025000, -0.005258353714424676000 ) ) ;
#89 = CARTESIAN_POINT ( 'NONE',  ( 19.21318781509028600, 6.458984092854023200, 0.7860185883804141600 ) ) ;
#90 = AXIS2_PLACEMENT_3D ( 'NONE', #139, #214, #177 ) ;
#91 = LOCAL_TIME ( 8, 56, 3.000000000000000000, #150 ) ;
#92 = CALENDAR_DATE ( 2018, 21, 12 ) ;
#93 = DIRECTION ( 'NONE',  ( 1.000000000000000000, 0.0000000000000000000, 0.0000000000000000000 ) ) ;
#94 = ORIENTED_EDGE ( 'NONE', *, *, #201, .F. ) ;
#95 = APPROVAL_ROLE ( '' ) ;
#96 = PERSON_AND_ORGANIZATION_ROLE ( 'creator' ) ;
#97 = MANIFOLD_SOLID_BREP ( 'Imported1', #99 ) ;
#98 = APPROVAL_ROLE ( '' ) ;
#99 = CLOSED_SHELL ( 'NONE', ( #152, #30, #8, #223, #102 ) ) ;
#100 = VERTEX_POINT ( 'NONE', #119 ) ;
#101 = PERSON_AND_ORGANIZATION ( #4, #79 ) ;
#102 = ADVANCED_FACE ( 'NONE', ( #64 ), #193, .T. ) ;
#103 = LINE ( 'NONE', #36, #53 ) ;
#104 = AXIS2_PLACEMENT_3D ( 'NONE', #219, #217, #144 ) ;
#105 = DIRECTION ( 'NONE',  ( 0.0000000000000000000, -1.000000000000000000, -3.567554706379037700E-016 ) ) ;
#106 = DIRECTION ( 'NONE',  ( 0.0000000000000000000, 0.0000000000000000000, 1.000000000000000000 ) ) ;
#107 = DIRECTION ( 'NONE',  ( 0.0000000000000000000, 0.0000000000000000000, 1.000000000000000000 ) ) ;
#108 = DIRECTION ( 'NONE',  ( -0.0000000000000000000, -0.0000000000000000000, -1.000000000000000000 ) ) ;
#109 = SECURITY_CLASSIFICATION ( '', '', #42 ) ;
#110 = ORIENTED_EDGE ( 'NONE', *, *, #210, .T. ) ;
#111 = ORIENTED_EDGE ( 'NONE', *, *, #68, .F. ) ;
#112 = PRODUCT ( '110-0419E BK7 pl-cx 38.1 F300', '110-0419E BK7 pl-cx 38.1 F300', '', ( #181 ) ) ;
#113 = CYLINDRICAL_SURFACE ( 'NONE', #167, 19.05000000000000100 ) ;
#114 =( LENGTH_UNIT ( ) NAMED_UNIT ( * ) SI_UNIT ( .MILLI., .METRE. ) );
#115 = ORIENTED_EDGE ( 'NONE', *, *, #227, .T. ) ;
#116 = CIRCLE ( 'NONE', #78, 19.05000000000000100 ) ;
#117 = LINE ( 'NONE', #143, #163 ) ;
#118 = PRODUCT_DEFINITION_SHAPE ( 'NONE', 'NONE',  #199 ) ;
#119 = CARTESIAN_POINT ( 'NONE',  ( 19.04999999999999700, -8.881784197001250400E-016, 1.170541994087150000 ) ) ;
#120 = CARTESIAN_POINT ( 'NONE',  ( -4.662936703425659800E-015, -8.881784197001250400E-016, 1.170541994087150000 ) ) ;
#121 = DIRECTION ( 'NONE',  ( 1.000000000000000000, 0.0000000000000000000, 0.0000000000000000000 ) ) ;
#122 = DIRECTION ( 'NONE',  ( 1.000000000000000000, 0.0000000000000000000, 0.0000000000000000000 ) ) ;
#123 = CIRCLE ( 'NONE', #65, 19.05000000000000100 ) ;
#124 = APPROVAL_DATE_TIME ( #171, #7 ) ;
#125 = APPLICATION_PROTOCOL_DEFINITION ( 'international standard', 'config_control_design', 1994, #60 ) ;
#126 = APPROVAL_PERSON_ORGANIZATION ( #84, #234, #95 ) ;
#127 = APPROVAL_STATUS ( 'not_yet_approved' ) ;
#128 = APPROVAL_PERSON_ORGANIZATION ( #132, #7, #98 ) ;
#129 = CC_DESIGN_PERSON_AND_ORGANIZATION_ASSIGNMENT ( #52, #222, ( #145 ) ) ;
#130 = CC_DESIGN_PERSON_AND_ORGANIZATION_ASSIGNMENT ( #1, #148, ( #112 ) ) ;
#131 = CARTESIAN_POINT ( 'NONE',  ( -12.70562269539414800, -19.27743019142488700, 1.591094263669152100 ) ) ;
#132 = PERSON_AND_ORGANIZATION ( #4, #79 ) ;
#133 = CC_DESIGN_PERSON_AND_ORGANIZATION_ASSIGNMENT ( #101, #43, ( #145 ) ) ;
#134 = CARTESIAN_POINT ( 'NONE',  ( 4.263256414560599900E-014, -19.27743019142488400, 1.198767216013668600 ) ) ;
#135 = ORIENTED_EDGE ( 'NONE', *, *, #19, .F. ) ;
#136 = CARTESIAN_POINT ( 'NONE',  ( 4.263256414560599900E-014, -6.458984092853989400, -0.4016519993785821500 ) ) ;
#137 = DIRECTION ( 'NONE',  ( 1.000000000000000000, 0.0000000000000000000, 0.0000000000000000000 ) ) ;
#138 = CARTESIAN_POINT ( 'NONE',  ( 0.0000000000000000000, 0.0000000000000000000, 0.0000000000000000000 ) ) ;
#139 = CARTESIAN_POINT ( 'NONE',  ( -4.662936703425659800E-015, -8.881784197001250400E-016, 1.170541994087150000 ) ) ;
#140 = CIRCLE ( 'NONE', #9, 19.05000000000000100 ) ;
#141 = CALENDAR_DATE ( 2018, 21, 12 ) ;
#142 = ORIENTED_EDGE ( 'NONE', *, *, #186, .F. ) ;
#143 = CARTESIAN_POINT ( 'NONE',  ( -19.05000000000000400, 1.444773732675583000E-015, 1.170541994087150000 ) ) ;
#144 = DIRECTION ( 'NONE',  ( 1.000000000000000000, 8.881784197001252300E-016, 0.0000000000000000000 ) ) ;
#145 = PRODUCT_DEFINITION_FORMATION_WITH_SPECIFIED_SOURCE ( 'ANY', '', #112, .NOT_KNOWN. ) ;
#146 = APPROVAL_ROLE ( '' ) ;
#147 = FACE_OUTER_BOUND ( 'NONE', #49, .T. ) ;
#148 = PERSON_AND_ORGANIZATION_ROLE ( 'design_owner' ) ;
#149 = APPLICATION_CONTEXT ( 'configuration controlled 3d designs of mechanical parts and assemblies' ) ;
#150 = COORDINATED_UNIVERSAL_TIME_OFFSET ( 2, 0, .AHEAD. ) ;
#151 = APPROVAL_PERSON_ORGANIZATION ( #198, #169, #146 ) ;
#152 = ADVANCED_FACE ( 'NONE', ( #159 ), #203, .T. ) ;
#153 = CC_DESIGN_DATE_AND_TIME_ASSIGNMENT ( #194, #41, ( #109 ) ) ;
#154 = ORIENTED_EDGE ( 'NONE', *, *, #210, .F. ) ;
#155 = CARTESIAN_POINT ( 'NONE',  ( 0.0000000000000000000, -6.458984092853989400, -0.4016519993785436800 ) ) ;
#156 = CC_DESIGN_DATE_AND_TIME_ASSIGNMENT ( #74, #183, ( #199 ) ) ;
#157 = CARTESIAN_POINT ( 'NONE',  ( 19.04999999999999700, -8.881784197001250400E-016, 4.000000000000000000 ) ) ;
#158 = DIRECTION ( 'NONE',  ( 1.000000000000000000, 0.0000000000000000000, -0.0000000000000000000 ) ) ;
#159 = FACE_OUTER_BOUND ( 'NONE', #189, .T. ) ;
#160 = CARTESIAN_POINT ( 'NONE',  ( -4.662936703425659800E-015, -8.881784197001250400E-016, 1.170541994087150000 ) ) ;
#161 = CARTESIAN_POINT ( 'NONE',  ( 19.21318781509028600, -6.458984092853989400, 0.7860185883804380300 ) ) ;
#162 = EDGE_CURVE ( 'NONE', #100, #58, #123, .T. ) ;
#163 = VECTOR ( 'NONE', #23, 1000.000000000000000 ) ;
#164 = DIRECTION ( 'NONE',  ( 1.000000000000000000, 0.0000000000000000000, 0.0000000000000000000 ) ) ;
#165 = COORDINATED_UNIVERSAL_TIME_OFFSET ( 2, 0, .AHEAD. ) ;
#166 = CC_DESIGN_APPROVAL ( #234, ( #109 ) ) ;
#167 = AXIS2_PLACEMENT_3D ( 'NONE', #34, #107, #172 ) ;
#168 = ADVANCED_BREP_SHAPE_REPRESENTATION ( '110-0419E BK7 pl-cx 38.1 F300', ( #97, #63 ), #220 ) ;
#169 = APPROVAL ( #27, 'UNSPECIFIED' ) ;
#170 = CARTESIAN_POINT ( 'NONE',  ( 4.263256414560599900E-014, -19.04999999999995500, 1.170541994087146700 ) ) ;
#171 = DATE_AND_TIME ( #22, #211 ) ;
#172 = DIRECTION ( 'NONE',  ( 1.000000000000000000, 0.0000000000000000000, 0.0000000000000000000 ) ) ;
#173 = DIRECTION ( 'NONE',  ( -0.0000000000000000000, -0.0000000000000000000, -1.000000000000000000 ) ) ;
#174 = CARTESIAN_POINT ( 'NONE',  ( 6.424780278203538600, -6.458984092853988600, -0.4016519993785820900 ) ) ;
#175 = PRODUCT_RELATED_PRODUCT_CATEGORY ( 'detail', '', ( #112 ) ) ;
#176 = SHAPE_DEFINITION_REPRESENTATION ( #118, #168 ) ;
#177 = DIRECTION ( 'NONE',  ( 1.000000000000000000, 0.0000000000000000000, 0.0000000000000000000 ) ) ;
#178 = ORIENTED_EDGE ( 'NONE', *, *, #224, .F. ) ;
#179 = EDGE_LOOP ( 'NONE', ( #111, #197 ) ) ;
#180 = DIRECTION ( 'NONE',  ( -0.0000000000000000000, -0.0000000000000000000, -1.000000000000000000 ) ) ;
#181 = MECHANICAL_CONTEXT ( 'NONE', #60, 'mechanical' ) ;
#182 = LOCAL_TIME ( 8, 56, 3.000000000000000000, #165 ) ;
#183 = DATE_TIME_ROLE ( 'creation_date' ) ;
#184 = DATE_AND_TIME ( #141, #91 ) ;
#185 = VERTEX_POINT ( 'NONE', #233 ) ;
#186 = EDGE_CURVE ( 'NONE', #100, #56, #103, .T. ) ;
#187 = CARTESIAN_POINT ( 'NONE',  ( -19.01607993466651800, -19.27743019142488400, 2.374253504402540600 ) ) ;
#188 = APPROVAL_DATE_TIME ( #225, #169 ) ;
#189 = EDGE_LOOP ( 'NONE', ( #3, #50, #202 ) ) ;
#190 = CARTESIAN_POINT ( 'NONE',  ( 4.263256414560599900E-014, 4.263256414560599900E-014, 155.5999999999999900 ) ) ;
#191 = CARTESIAN_POINT ( 'NONE',  ( 0.0000000000000000000, 19.27743019142492300, 1.198767216013679100 ) ) ;
#192 = CARTESIAN_POINT ( 'NONE',  ( 6.358868528679558100, -19.27743019142488700, 1.198767216013668600 ) ) ;
#193 = PLANE ( 'NONE',  #45 ) ;
#194 = DATE_AND_TIME ( #196, #57 ) ;
#195 = AXIS2_PLACEMENT_3D ( 'NONE', #75, #180, #164 ) ;
#196 = CALENDAR_DATE ( 2018, 21, 12 ) ;
#197 = ORIENTED_EDGE ( 'NONE', *, *, #227, .F. ) ;
#198 = PERSON_AND_ORGANIZATION ( #4, #79 ) ;
#199 = PRODUCT_DEFINITION ( 'UNKNOWN', '', #145, #70 ) ;
#200 = PERSON_AND_ORGANIZATION ( #4, #79 ) ;
#201 = EDGE_CURVE ( 'NONE', #62, #61, #44, .T. ) ;
#202 = ORIENTED_EDGE ( 'NONE', *, *, #224, .T. ) ;
#203 =( BOUNDED_SURFACE ( )  B_SPLINE_SURFACE ( 3, 3, ( 
 ( #134, #192, #21, #228 ),
 ( #136, #174, #86, #161 ),
 ( #33, #229, #88, #89 ),
 ( #32, #17, #212, #213 ) ),
 .UNSPECIFIED., .F., .F., .F. ) 
 B_SPLINE_SURFACE_WITH_KNOTS ( ( 4, 4 ),
 ( 4, 4 ),
 ( 0.0000000000000000000, 1.000000000000000000 ),
 ( 0.0000000000000000000, 1.000000000000000000 ),
 .UNSPECIFIED. ) 
 GEOMETRIC_REPRESENTATION_ITEM ( )  RATIONAL_B_SPLINE_SURFACE ( (
 ( 1.000000000000000000, 0.9987299247855906400, 0.9987299247855906400, 1.000000000000000000),
 ( 0.9948638936760341200, 0.9936003417029654100, 0.9936003417029654100, 0.9948638936760341200),
 ( 0.9948638936760341200, 0.9936003417029654100, 0.9936003417029654100, 0.9948638936760341200),
 ( 1.000000000000000000, 0.9987299247855906400, 0.9987299247855906400, 1.000000000000000000) ) ) 
 REPRESENTATION_ITEM ( '' )  SURFACE ( )  );
#204 = CIRCLE ( 'NONE', #195, 19.05000000000000100 ) ;
#205 = AXIS2_PLACEMENT_3D ( 'NONE', #120, #38, #93 ) ;
#206 = ORIENTED_EDGE ( 'NONE', *, *, #201, .T. ) ;
#207 = CC_DESIGN_APPROVAL ( #169, ( #145 ) ) ;
#208 = CARTESIAN_POINT ( 'NONE',  ( 4.263256414560599900E-014, 19.04999999999999400, 1.170541994087146700 ) ) ;
#209 = CARTESIAN_POINT ( 'NONE',  ( 3.469446951953614200E-015, 6.458984092854024100, -0.4016519993785675500 ) ) ;
#210 = EDGE_CURVE ( 'NONE', #62, #185, #117, .T. ) ;
#211 = LOCAL_TIME ( 8, 56, 3.000000000000000000, #24 ) ;
#212 = CARTESIAN_POINT ( 'NONE',  ( 12.70562269539412600, 19.27743019142492300, 1.591094263669085500 ) ) ;
#213 = CARTESIAN_POINT ( 'NONE',  ( 19.01607993466647200, 19.27743019142492300, 2.374253504402464200 ) ) ;
#214 = DIRECTION ( 'NONE',  ( -0.0000000000000000000, -0.0000000000000000000, -1.000000000000000000 ) ) ;
#215 = CC_DESIGN_PERSON_AND_ORGANIZATION_ASSIGNMENT ( #200, #96, ( #199 ) ) ;
#216 =( BOUNDED_SURFACE ( )  B_SPLINE_SURFACE ( 3, 3, ( 
 ( #187, #131, #47, #81 ),
 ( #46, #15, #31, #155 ),
 ( #48, #67, #69, #209 ),
 ( #18, #231, #87, #191 ) ),
 .UNSPECIFIED., .F., .F., .F. ) 
 B_SPLINE_SURFACE_WITH_KNOTS ( ( 4, 4 ),
 ( 4, 4 ),
 ( 0.0000000000000000000, 1.000000000000000000 ),
 ( 0.0000000000000000000, 1.000000000000000000 ),
 .UNSPECIFIED. ) 
 GEOMETRIC_REPRESENTATION_ITEM ( )  RATIONAL_B_SPLINE_SURFACE ( (
 ( 1.000000000000000000, 0.9987299247855906400, 0.9987299247855906400, 1.000000000000000000),
 ( 0.9948638936760341200, 0.9936003417029654100, 0.9936003417029654100, 0.9948638936760341200),
 ( 0.9948638936760341200, 0.9936003417029654100, 0.9936003417029654100, 0.9948638936760341200),
 ( 1.000000000000000000, 0.9987299247855906400, 0.9987299247855906400, 1.000000000000000000) ) ) 
 REPRESENTATION_ITEM ( '' )  SURFACE ( )  );
#217 = DIRECTION ( 'NONE',  ( -0.0000000000000000000, -0.0000000000000000000, -1.000000000000000000 ) ) ;
#218 = CC_DESIGN_APPROVAL ( #7, ( #199 ) ) ;
#219 = CARTESIAN_POINT ( 'NONE',  ( -4.662936703425659800E-015, -8.881784197001250400E-016, 1.170541994087150000 ) ) ;
#220 =( GEOMETRIC_REPRESENTATION_CONTEXT ( 3 ) GLOBAL_UNCERTAINTY_ASSIGNED_CONTEXT ( ( #54 ) ) GLOBAL_UNIT_ASSIGNED_CONTEXT ( ( #114, #5, #6 ) ) REPRESENTATION_CONTEXT ( 'NONE', 'WORKASPACE' ) );
#221 = CALENDAR_DATE ( 2018, 21, 12 ) ;
#222 = PERSON_AND_ORGANIZATION_ROLE ( 'design_supplier' ) ;
#223 = ADVANCED_FACE ( 'NONE', ( #147 ), #77, .T. ) ;
#224 = EDGE_CURVE ( 'NONE', #61, #100, #226, .T. ) ;
#225 = DATE_AND_TIME ( #221, #37 ) ;
#226 = CIRCLE ( 'NONE', #104, 19.05000000000000100 ) ;
#227 = EDGE_CURVE ( 'NONE', #185, #56, #204, .T. ) ;
#228 = CARTESIAN_POINT ( 'NONE',  ( 19.01607993466646800, -19.27743019142488400, 2.374253504402491700 ) ) ;
#229 = CARTESIAN_POINT ( 'NONE',  ( 6.424780278203539500, 6.458984092854025900, -0.4016519993786062400 ) ) ;
#230 = ORIENTED_EDGE ( 'NONE', *, *, #162, .F. ) ;
#231 = CARTESIAN_POINT ( 'NONE',  ( -12.70562269539414800, 19.27743019142492300, 1.591094263669124100 ) ) ;
#232 = CARTESIAN_POINT ( 'NONE',  ( -4.662936703425659800E-015, -8.881784197001250400E-016, 1.170541994087150000 ) ) ;
#233 = CARTESIAN_POINT ( 'NONE',  ( -19.05000000000000400, 1.444773732675583000E-015, 4.000000000000000000 ) ) ;
#234 = APPROVAL ( #127, 'UNSPECIFIED' ) ;
#235 = CARTESIAN_POINT ( 'NONE',  ( -19.05000000000000400, 1.444773732675583000E-015, 1.170541994087150000 ) ) ;
ENDSEC;
END-ISO-10303-21;
