ISO-10303-21;
HEADER;
FILE_DESCRIPTION (( 'STEP AP203' ),
    '1' );
FILE_NAME ('110-0417E BK7 pl-cx 38.1 F250.STEP',
    '2018-12-21T06:56:19',
    ( '' ),
    ( '' ),
    'SwSTEP 2.0',
    'SolidWorks 2017',
    '' );
FILE_SCHEMA (( 'CONFIG_CONTROL_DESIGN' ));
ENDSEC;

DATA;
#1 = FACE_OUTER_BOUND ( 'NONE', #205, .T. ) ;
#2 = AXIS2_PLACEMENT_3D ( 'NONE', #186, #149, #25 ) ;
#3 =( BOUNDED_SURFACE ( )  B_SPLINE_SURFACE ( 3, 3, ( 
 ( #162, #161, #72, #40 ),
 ( #201, #88, #89, #105 ),
 ( #182, #127, #222, #106 ),
 ( #8, #59, #74, #203 ) ),
 .UNSPECIFIED., .F., .F., .F. ) 
 B_SPLINE_SURFACE_WITH_KNOTS ( ( 4, 4 ),
 ( 4, 4 ),
 ( 0.0000000000000000000, 1.000000000000000000 ),
 ( 0.0000000000000000000, 1.000000000000000000 ),
 .UNSPECIFIED. ) 
 GEOMETRIC_REPRESENTATION_ITEM ( )  RATIONAL_B_SPLINE_SURFACE ( (
 ( 1.000000000000000000, 0.9981682181615431100, 0.9981682181615431100, 1.000000000000000000),
 ( 0.9925955599997561300, 0.9907773414800156200, 0.9907773414800156200, 0.9925955599997561300),
 ( 0.9925955599997561300, 0.9907773414800156200, 0.9907773414800156200, 0.9925955599997561300),
 ( 1.000000000000000000, 0.9981682181615431100, 0.9981682181615431100, 1.000000000000000000) ) ) 
 REPRESENTATION_ITEM ( '' )  SURFACE ( )  );
#4 = ORIENTED_EDGE ( 'NONE', *, *, #179, .F. ) ;
#5 = EDGE_LOOP ( 'NONE', ( #200, #53, #154, #219, #4 ) ) ;
#6 = DIRECTION ( 'NONE',  ( -1.165588477296749900E-017, -5.434385993627839900E-034, -1.000000000000000000 ) ) ;
#7 = AXIS2_PLACEMENT_3D ( 'NONE', #128, #29, #44 ) ;
#8 = CARTESIAN_POINT ( 'NONE',  ( -18.95062134976693400, 19.27691185372444200, 2.848257324380848700 ) ) ;
#9 = PERSON_AND_ORGANIZATION ( #181, #199 ) ;
#10 = CIRCLE ( 'NONE', #7, 19.05000000000000100 ) ;
#11 = CARTESIAN_POINT ( 'NONE',  ( -4.326095059374293400E-014, -19.05000000000002600, 1.406635011782475700 ) ) ;
#12 = CARTESIAN_POINT ( 'NONE',  ( -4.368900198667301300E-014, 6.473570448548437100, -0.4837599052084585200 ) ) ;
#13 = SECURITY_CLASSIFICATION ( '', '', #69 ) ;
#14 = CARTESIAN_POINT ( 'NONE',  ( -4.325327472439884900E-014, 19.27691185372444200, 1.440533802047422300 ) ) ;
#15 = FACE_OUTER_BOUND ( 'NONE', #37, .T. ) ;
#16 = PERSON_AND_ORGANIZATION ( #181, #199 ) ;
#17 =( NAMED_UNIT ( * ) PLANE_ANGLE_UNIT ( ) SI_UNIT ( $, .RADIAN. ) );
#18 = VERTEX_POINT ( 'NONE', #24 ) ;
#19 = CC_DESIGN_APPROVAL ( #50, ( #122 ) ) ;
#20 = COORDINATED_UNIVERSAL_TIME_OFFSET ( 2, 0, .AHEAD. ) ;
#21 = VERTEX_POINT ( 'NONE', #42 ) ;
#22 = CARTESIAN_POINT ( 'NONE',  ( 19.04999999999999700, -8.881784197001250400E-016, 1.406635011782469700 ) ) ;
#23 = DATE_AND_TIME ( #233, #210 ) ;
#24 = CARTESIAN_POINT ( 'NONE',  ( 19.04999999999999700, -8.881784197001250400E-016, 4.000000000000001800 ) ) ;
#25 = DIRECTION ( 'NONE',  ( 1.000000000000000000, 0.0000000000000000000, -1.138269997360109700E-017 ) ) ;
#26 = EDGE_CURVE ( 'NONE', #21, #45, #184, .T. ) ;
#27 = CARTESIAN_POINT ( 'NONE',  ( 12.86452399719538800, 6.473570448548438000, -0.006604599378322371800 ) ) ;
#28 = DIRECTION ( 'NONE',  ( -1.165588477296749900E-017, -5.434385993627839900E-034, -1.000000000000000000 ) ) ;
#29 = DIRECTION ( 'NONE',  ( -1.165588477296749900E-017, -5.434385993627839900E-034, -1.000000000000000000 ) ) ;
#30 = APPROVAL_PERSON_ORGANIZATION ( #224, #50, #68 ) ;
#31 = PERSON_AND_ORGANIZATION_ROLE ( 'classification_officer' ) ;
#32 = PRODUCT_DEFINITION ( 'UNKNOWN', '', #122, #114 ) ;
#33 = CARTESIAN_POINT ( 'NONE',  ( 0.0000000000000000000, 0.0000000000000000000, 0.0000000000000000000 ) ) ;
#34 = DATE_AND_TIME ( #183, #61 ) ;
#35 = EDGE_CURVE ( 'NONE', #220, #21, #228, .T. ) ;
#36 = SHAPE_DEFINITION_REPRESENTATION ( #107, #217 ) ;
#37 = EDGE_LOOP ( 'NONE', ( #83, #71 ) ) ;
#38 = EDGE_CURVE ( 'NONE', #18, #45, #94, .T. ) ;
#39 = DIRECTION ( 'NONE',  ( 1.165588477296749900E-017, 5.434385993627839900E-034, 1.000000000000000000 ) ) ;
#40 = CARTESIAN_POINT ( 'NONE',  ( -7.285838599102589800E-014, -19.27691185372446400, 1.440533802047459600 ) ) ;
#41 = EDGE_CURVE ( 'NONE', #193, #18, #130, .T. ) ;
#42 = CARTESIAN_POINT ( 'NONE',  ( -19.05000000000000400, 1.444773732675583000E-015, 1.406635011782470400 ) ) ;
#43 = COORDINATED_UNIVERSAL_TIME_OFFSET ( 2, 0, .AHEAD. ) ;
#44 = DIRECTION ( 'NONE',  ( 1.000000000000000000, 0.0000000000000000000, 0.0000000000000000000 ) ) ;
#45 = VERTEX_POINT ( 'NONE', #159 ) ;
#46 = CARTESIAN_POINT ( 'NONE',  ( 0.0000000000000000000, 39.06600000000000300, 4.000000000000000000 ) ) ;
#47 = CARTESIAN_POINT ( 'NONE',  ( 19.23494002419263200, 6.473570448548436200, 0.9450838790119294700 ) ) ;
#48 = ORIENTED_EDGE ( 'NONE', *, *, #104, .T. ) ;
#49 = PRODUCT ( '110-0417E BK7 pl-cx 38.1 F250', '110-0417E BK7 pl-cx 38.1 F250', '', ( #115 ) ) ;
#50 = APPROVAL ( #134, 'UNSPECIFIED' ) ;
#51 = APPLICATION_PROTOCOL_DEFINITION ( 'international standard', 'config_control_design', 1994, #135 ) ;
#52 = APPROVAL_DATE_TIME ( #34, #66 ) ;
#53 = ORIENTED_EDGE ( 'NONE', *, *, #26, .T. ) ;
#54 = ADVANCED_FACE ( 'NONE', ( #148 ), #3, .T. ) ;
#55 = DATE_AND_TIME ( #97, #165 ) ;
#56 = FACE_OUTER_BOUND ( 'NONE', #214, .T. ) ;
#57 = CARTESIAN_POINT ( 'NONE',  ( -4.662936703425659800E-015, -8.881784197001250400E-016, 1.406635011782470200 ) ) ;
#58 = APPROVAL_DATE_TIME ( #98, #50 ) ;
#59 = CARTESIAN_POINT ( 'NONE',  ( -12.67436876898053000, 19.27691185372444600, 1.910636101012029900 ) ) ;
#60 = CARTESIAN_POINT ( 'NONE',  ( 6.345902616361184000, 19.27691185372444600, 1.440533802047421000 ) ) ;
#61 = LOCAL_TIME ( 8, 56, 19.00000000000000000, #20 ) ;
#62 = CARTESIAN_POINT ( 'NONE',  ( -4.662936703425659800E-015, -8.881784197001250400E-016, 1.406635011782470200 ) ) ;
#63 = DIRECTION ( 'NONE',  ( 1.000000000000000000, 1.014630051716460000E-031, -2.264349047295540000E-016 ) ) ;
#64 = APPROVAL_STATUS ( 'not_yet_approved' ) ;
#65 = PERSON_AND_ORGANIZATION ( #181, #199 ) ;
#66 = APPROVAL ( #64, 'UNSPECIFIED' ) ;
#67 = APPROVAL_STATUS ( 'not_yet_approved' ) ;
#68 = APPROVAL_ROLE ( '' ) ;
#69 = SECURITY_CLASSIFICATION_LEVEL ( 'unclassified' ) ;
#70 = VERTEX_POINT ( 'NONE', #180 ) ;
#71 = ORIENTED_EDGE ( 'NONE', *, *, #91, .F. ) ;
#72 = CARTESIAN_POINT ( 'NONE',  ( -6.345902616361248000, -19.27691185372446400, 1.440533802047462500 ) ) ;
#73 = CC_DESIGN_APPROVAL ( #66, ( #32 ) ) ;
#74 = CARTESIAN_POINT ( 'NONE',  ( -6.345902616361249700, 19.27691185372444600, 1.440533802047433600 ) ) ;
#75 = CIRCLE ( 'NONE', #157, 19.05000000000000100 ) ;
#76 = DIRECTION ( 'NONE',  ( -1.165588477296749900E-017, -5.434385993627839900E-034, -1.000000000000000000 ) ) ;
#77 = DIRECTION ( 'NONE',  ( 1.165588477296749900E-017, 5.434385993627839900E-034, 1.000000000000000000 ) ) ;
#78 = MANIFOLD_SOLID_BREP ( 'Imported1', #125 ) ;
#79 = CARTESIAN_POINT ( 'NONE',  ( -4.368900198667301300E-014, -6.473570448548459300, -0.4837599052084301000 ) ) ;
#80 = AXIS2_PLACEMENT_3D ( 'NONE', #187, #77, #206 ) ;
#81 = PERSON_AND_ORGANIZATION_ROLE ( 'design_owner' ) ;
#82 = DIRECTION ( 'NONE',  ( 0.0000000000000000000, 0.0000000000000000000, 1.000000000000000000 ) ) ;
#83 = ORIENTED_EDGE ( 'NONE', *, *, #38, .F. ) ;
#84 = ORIENTED_EDGE ( 'NONE', *, *, #35, .F. ) ;
#85 = CC_DESIGN_PERSON_AND_ORGANIZATION_ASSIGNMENT ( #156, #229, ( #32 ) ) ;
#86 = DIRECTION ( 'NONE',  ( 1.165588477296749900E-017, 5.434385993627839900E-034, 1.000000000000000000 ) ) ;
#87 = ORIENTED_EDGE ( 'NONE', *, *, #101, .T. ) ;
#88 = CARTESIAN_POINT ( 'NONE',  ( -12.86452399719540700, -6.473570448548460200, -0.006604599378286485500 ) ) ;
#89 = CARTESIAN_POINT ( 'NONE',  ( -6.441111031252635400, -6.473570448548460200, -0.4837599052084177200 ) ) ;
#90 = CC_DESIGN_DATE_AND_TIME_ASSIGNMENT ( #23, #230, ( #32 ) ) ;
#91 = EDGE_CURVE ( 'NONE', #45, #18, #10, .T. ) ;
#92 = CARTESIAN_POINT ( 'NONE',  ( -4.662936703425659800E-015, -8.881784197001250400E-016, 1.406635011782470200 ) ) ;
#93 = CARTESIAN_POINT ( 'NONE',  ( 6.345902616361183100, -19.27691185372446400, 1.440533802047448300 ) ) ;
#94 = CIRCLE ( 'NONE', #197, 19.05000000000000100 ) ;
#95 = APPLICATION_CONTEXT ( 'configuration controlled 3d designs of mechanical parts and assemblies' ) ;
#96 = DATE_TIME_ROLE ( 'classification_date' ) ;
#97 = CALENDAR_DATE ( 2018, 21, 12 ) ;
#98 = DATE_AND_TIME ( #202, #129 ) ;
#99 = CIRCLE ( 'NONE', #137, 19.05000000000000100 ) ;
#100 = CC_DESIGN_PERSON_AND_ORGANIZATION_ASSIGNMENT ( #116, #31, ( #13 ) ) ;
#101 = EDGE_CURVE ( 'NONE', #220, #70, #121, .T. ) ;
#102 = APPROVAL_PERSON_ORGANIZATION ( #65, #66, #191 ) ;
#103 = ORIENTED_EDGE ( 'NONE', *, *, #120, .F. ) ;
#104 = EDGE_CURVE ( 'NONE', #21, #70, #141, .T. ) ;
#105 = CARTESIAN_POINT ( 'NONE',  ( -7.285838599102589800E-014, -6.473570448548459300, -0.4837599052084206600 ) ) ;
#106 = CARTESIAN_POINT ( 'NONE',  ( -7.285838599102589800E-014, 6.473570448548437100, -0.4837599052084495300 ) ) ;
#107 = PRODUCT_DEFINITION_SHAPE ( 'NONE', 'NONE',  #32 ) ;
#108 = DIRECTION ( 'NONE',  ( 1.000000000000000000, 0.0000000000000000000, -1.138269997360109700E-017 ) ) ;
#109 = CARTESIAN_POINT ( 'NONE',  ( -4.662936703425659800E-015, -8.881784197001250400E-016, 1.406635011782470200 ) ) ;
#110 = ORIENTED_EDGE ( 'NONE', *, *, #101, .F. ) ;
#111 = CARTESIAN_POINT ( 'NONE',  ( 12.67436876898050500, -19.27691185372446400, 1.910636101012050300 ) ) ;
#112 = CC_DESIGN_PERSON_AND_ORGANIZATION_ASSIGNMENT ( #16, #170, ( #122 ) ) ;
#113 = DIRECTION ( 'NONE',  ( 1.000000000000000000, 8.881784197001252300E-016, -1.138269997360109700E-017 ) ) ;
#114 = DESIGN_CONTEXT ( 'detailed design', #95, 'design' ) ;
#115 = MECHANICAL_CONTEXT ( 'NONE', #135, 'mechanical' ) ;
#116 = PERSON_AND_ORGANIZATION ( #181, #199 ) ;
#117 = ADVANCED_FACE ( 'NONE', ( #171 ), #178, .T. ) ;
#118 = ORIENTED_EDGE ( 'NONE', *, *, #120, .T. ) ;
#119 = AXIS2_PLACEMENT_3D ( 'NONE', #57, #6, #221 ) ;
#120 = EDGE_CURVE ( 'NONE', #193, #220, #99, .T. ) ;
#121 = CIRCLE ( 'NONE', #155, 129.6999999999999900 ) ;
#122 = PRODUCT_DEFINITION_FORMATION_WITH_SPECIFIED_SOURCE ( 'ANY', '', #49, .NOT_KNOWN. ) ;
#123 = ORIENTED_EDGE ( 'NONE', *, *, #38, .T. ) ;
#124 = CARTESIAN_POINT ( 'NONE',  ( -4.632708739948748200E-015, -8.881784197001250400E-016, 4.000000000000001800 ) ) ;
#125 = CLOSED_SHELL ( 'NONE', ( #139, #117, #54, #173, #213 ) ) ;
#126 = CARTESIAN_POINT ( 'NONE',  ( -19.05000000000000400, 1.444773732675583000E-015, 1.406635011782470200 ) ) ;
#127 = CARTESIAN_POINT ( 'NONE',  ( -12.86452399719540700, 6.473570448548438900, -0.006604599378315216900 ) ) ;
#128 = CARTESIAN_POINT ( 'NONE',  ( -4.632708739948748200E-015, -8.881784197001250400E-016, 4.000000000000001800 ) ) ;
#129 = LOCAL_TIME ( 8, 56, 19.00000000000000000, #215 ) ;
#130 = LINE ( 'NONE', #22, #225 ) ;
#131 = CARTESIAN_POINT ( 'NONE',  ( 18.95062134976696600, 19.27691185372444200, 2.848257324380851800 ) ) ;
#132 = DIRECTION ( 'NONE',  ( 0.0000000000000000000, -1.000000000000000000, -4.279965399480172100E-016 ) ) ;
#133 = CC_DESIGN_APPROVAL ( #195, ( #13 ) ) ;
#134 = APPROVAL_STATUS ( 'not_yet_approved' ) ;
#135 = APPLICATION_CONTEXT ( 'configuration controlled 3d designs of mechanical parts and assemblies' ) ;
#136 = APPROVAL_PERSON_ORGANIZATION ( #9, #195, #212 ) ;
#137 = AXIS2_PLACEMENT_3D ( 'NONE', #92, #204, #108 ) ;
#138 = ORIENTED_EDGE ( 'NONE', *, *, #35, .T. ) ;
#139 = ADVANCED_FACE ( 'NONE', ( #1 ), #175, .T. ) ;
#140 =( LENGTH_UNIT ( ) NAMED_UNIT ( * ) SI_UNIT ( .MILLI., .METRE. ) );
#141 = CIRCLE ( 'NONE', #192, 19.05000000000000100 ) ;
#142 = DIRECTION ( 'NONE',  ( 1.000000000000000000, 0.0000000000000000000, 0.0000000000000000000 ) ) ;
#143 = COORDINATED_UNIVERSAL_TIME_OFFSET ( 2, 0, .AHEAD. ) ;
#144 = DIRECTION ( 'NONE',  ( -1.165588477296749900E-017, -5.434385993627839900E-034, -1.000000000000000000 ) ) ;
#145 = CARTESIAN_POINT ( 'NONE',  ( 12.86452399719538600, -6.473570448548461100, -0.006604599378294183400 ) ) ;
#146 = DIRECTION ( 'NONE',  ( 0.0000000000000000000, 0.0000000000000000000, 1.000000000000000000 ) ) ;
#147 = PERSON_AND_ORGANIZATION ( #181, #199 ) ;
#148 = FACE_OUTER_BOUND ( 'NONE', #177, .T. ) ;
#149 = DIRECTION ( 'NONE',  ( 1.165588477296749900E-017, 5.434385993627839900E-034, 1.000000000000000000 ) ) ;
#150 = CARTESIAN_POINT ( 'NONE',  ( 19.23494002419262800, -6.473570448548460200, 0.9450838790119574500 ) ) ;
#151 = CC_DESIGN_DATE_AND_TIME_ASSIGNMENT ( #55, #96, ( #13 ) ) ;
#152 =( NAMED_UNIT ( * ) SI_UNIT ( $, .STERADIAN. ) SOLID_ANGLE_UNIT ( ) );
#153 = APPLICATION_PROTOCOL_DEFINITION ( 'international standard', 'config_control_design', 1994, #95 ) ;
#154 = ORIENTED_EDGE ( 'NONE', *, *, #91, .T. ) ;
#155 = AXIS2_PLACEMENT_3D ( 'NONE', #190, #63, #132 ) ;
#156 = PERSON_AND_ORGANIZATION ( #181, #199 ) ;
#157 = AXIS2_PLACEMENT_3D ( 'NONE', #109, #28, #113 ) ;
#158 = ORIENTED_EDGE ( 'NONE', *, *, #179, .T. ) ;
#159 = CARTESIAN_POINT ( 'NONE',  ( -19.05000000000000400, 1.444773732675583000E-015, 4.000000000000001800 ) ) ;
#160 = CC_DESIGN_SECURITY_CLASSIFICATION ( #13, ( #122 ) ) ;
#161 = CARTESIAN_POINT ( 'NONE',  ( -12.67436876898052800, -19.27691185372446400, 1.910636101012058100 ) ) ;
#162 = CARTESIAN_POINT ( 'NONE',  ( -18.95062134976693000, -19.27691185372446400, 2.848257324380876200 ) ) ;
#163 = CARTESIAN_POINT ( 'NONE',  ( -4.325327472439884900E-014, -19.27691185372446400, 1.440533802047450100 ) ) ;
#164 = PRODUCT_RELATED_PRODUCT_CATEGORY ( 'detail', '', ( #49 ) ) ;
#165 = LOCAL_TIME ( 8, 56, 19.00000000000000000, #198 ) ;
#166 = CARTESIAN_POINT ( 'NONE',  ( 18.95062134976695800, -19.27691185372446400, 2.848257324380878900 ) ) ;
#167 = CARTESIAN_POINT ( 'NONE',  ( 12.67436876898051200, 19.27691185372444600, 1.910636101012023000 ) ) ;
#168 =( GEOMETRIC_REPRESENTATION_CONTEXT ( 3 ) GLOBAL_UNCERTAINTY_ASSIGNED_CONTEXT ( ( #207 ) ) GLOBAL_UNIT_ASSIGNED_CONTEXT ( ( #140, #17, #152 ) ) REPRESENTATION_CONTEXT ( 'NONE', 'WORKASPACE' ) );
#169 = PLANE ( 'NONE',  #185 ) ;
#170 = PERSON_AND_ORGANIZATION_ROLE ( 'creator' ) ;
#171 = FACE_OUTER_BOUND ( 'NONE', #5, .T. ) ;
#172 = DIRECTION ( 'NONE',  ( 1.000000000000000000, 0.0000000000000000000, 0.0000000000000000000 ) ) ;
#173 = ADVANCED_FACE ( 'NONE', ( #56 ), #174, .T. ) ;
#174 = CYLINDRICAL_SURFACE ( 'NONE', #80, 19.05000000000000100 ) ;
#175 =( BOUNDED_SURFACE ( )  B_SPLINE_SURFACE ( 3, 3, ( 
 ( #163, #93, #111, #166 ),
 ( #79, #227, #145, #150 ),
 ( #12, #223, #27, #47 ),
 ( #14, #60, #167, #131 ) ),
 .UNSPECIFIED., .F., .F., .F. ) 
 B_SPLINE_SURFACE_WITH_KNOTS ( ( 4, 4 ),
 ( 4, 4 ),
 ( 0.0000000000000000000, 1.000000000000000000 ),
 ( 0.0000000000000000000, 1.000000000000000000 ),
 .UNSPECIFIED. ) 
 GEOMETRIC_REPRESENTATION_ITEM ( )  RATIONAL_B_SPLINE_SURFACE ( (
 ( 1.000000000000000000, 0.9981682181615431100, 0.9981682181615431100, 1.000000000000000000),
 ( 0.9925955599997561300, 0.9907773414800156200, 0.9907773414800156200, 0.9925955599997561300),
 ( 0.9925955599997561300, 0.9907773414800156200, 0.9907773414800156200, 0.9925955599997561300),
 ( 1.000000000000000000, 0.9981682181615431100, 0.9981682181615431100, 1.000000000000000000) ) ) 
 REPRESENTATION_ITEM ( '' )  SURFACE ( )  );
#176 = LOCAL_TIME ( 8, 56, 19.00000000000000000, #43 ) ;
#177 = EDGE_LOOP ( 'NONE', ( #110, #138, #48 ) ) ;
#178 = CYLINDRICAL_SURFACE ( 'NONE', #2, 19.05000000000000100 ) ;
#179 = EDGE_CURVE ( 'NONE', #70, #193, #75, .T. ) ;
#180 = CARTESIAN_POINT ( 'NONE',  ( -4.326095059374293400E-014, 19.05000000000001500, 1.406635011782475700 ) ) ;
#181 = PERSON ( 'UNSPECIFIED', 'UNSPECIFIED', 'UNSPECIFIED', ('UNSPECIFIED'), ('UNSPECIFIED'), ('UNSPECIFIED') ) ;
#182 = CARTESIAN_POINT ( 'NONE',  ( -19.23494002419260000, 6.473570448548437100, 0.9450838790119262500 ) ) ;
#183 = CALENDAR_DATE ( 2018, 21, 12 ) ;
#184 = LINE ( 'NONE', #126, #234 ) ;
#185 = AXIS2_PLACEMENT_3D ( 'NONE', #46, #146, #235 ) ;
#186 = CARTESIAN_POINT ( 'NONE',  ( -4.662936703425659800E-015, -8.881784197001250400E-016, 1.406635011782470000 ) ) ;
#187 = CARTESIAN_POINT ( 'NONE',  ( -4.662936703425659800E-015, -8.881784197001250400E-016, 1.406635011782470000 ) ) ;
#188 = CALENDAR_DATE ( 2018, 21, 12 ) ;
#189 = ORIENTED_EDGE ( 'NONE', *, *, #41, .T. ) ;
#190 = CARTESIAN_POINT ( 'NONE',  ( -1.421085471520200100E-014, -1.421085471520200100E-014, 129.6999999999999900 ) ) ;
#191 = APPROVAL_ROLE ( '' ) ;
#192 = AXIS2_PLACEMENT_3D ( 'NONE', #62, #76, #208 ) ;
#193 = VERTEX_POINT ( 'NONE', #226 ) ;
#194 = CC_DESIGN_PERSON_AND_ORGANIZATION_ASSIGNMENT ( #218, #211, ( #122 ) ) ;
#195 = APPROVAL ( #67, 'UNSPECIFIED' ) ;
#196 = ORIENTED_EDGE ( 'NONE', *, *, #26, .F. ) ;
#197 = AXIS2_PLACEMENT_3D ( 'NONE', #124, #144, #142 ) ;
#198 = COORDINATED_UNIVERSAL_TIME_OFFSET ( 2, 0, .AHEAD. ) ;
#199 = ORGANIZATION ( 'UNSPECIFIED', 'UNSPECIFIED', '' ) ;
#200 = ORIENTED_EDGE ( 'NONE', *, *, #104, .F. ) ;
#201 = CARTESIAN_POINT ( 'NONE',  ( -19.23494002419259600, -6.473570448548459300, 0.9450838790119549000 ) ) ;
#202 = CALENDAR_DATE ( 2018, 21, 12 ) ;
#203 = CARTESIAN_POINT ( 'NONE',  ( -7.285838599102589800E-014, 19.27691185372444200, 1.440533802047431000 ) ) ;
#204 = DIRECTION ( 'NONE',  ( -1.165588477296749900E-017, -5.434385993627839900E-034, -1.000000000000000000 ) ) ;
#205 = EDGE_LOOP ( 'NONE', ( #118, #87, #158 ) ) ;
#206 = DIRECTION ( 'NONE',  ( 1.000000000000000000, 0.0000000000000000000, -1.138269997360109700E-017 ) ) ;
#207 = UNCERTAINTY_MEASURE_WITH_UNIT (LENGTH_MEASURE( 1.000000000000000100E-005 ), #140, 'distance_accuracy_value', 'NONE');
#208 = DIRECTION ( 'NONE',  ( 1.000000000000000000, 0.0000000000000000000, -1.138269997360109700E-017 ) ) ;
#209 = APPROVAL_DATE_TIME ( #232, #195 ) ;
#210 = LOCAL_TIME ( 8, 56, 19.00000000000000000, #143 ) ;
#211 = PERSON_AND_ORGANIZATION_ROLE ( 'design_supplier' ) ;
#212 = APPROVAL_ROLE ( '' ) ;
#213 = ADVANCED_FACE ( 'NONE', ( #15 ), #169, .T. ) ;
#214 = EDGE_LOOP ( 'NONE', ( #196, #84, #103, #189, #123 ) ) ;
#215 = COORDINATED_UNIVERSAL_TIME_OFFSET ( 2, 0, .AHEAD. ) ;
#216 = AXIS2_PLACEMENT_3D ( 'NONE', #33, #82, #172 ) ;
#217 = ADVANCED_BREP_SHAPE_REPRESENTATION ( '110-0417E BK7 pl-cx 38.1 F250', ( #78, #216 ), #168 ) ;
#218 = PERSON_AND_ORGANIZATION ( #181, #199 ) ;
#219 = ORIENTED_EDGE ( 'NONE', *, *, #41, .F. ) ;
#220 = VERTEX_POINT ( 'NONE', #11 ) ;
#221 = DIRECTION ( 'NONE',  ( 1.000000000000000000, 0.0000000000000000000, -1.138269997360109700E-017 ) ) ;
#222 = CARTESIAN_POINT ( 'NONE',  ( -6.441111031252637200, 6.473570448548438900, -0.4837599052084465800 ) ) ;
#223 = CARTESIAN_POINT ( 'NONE',  ( 6.441111031252573200, 6.473570448548438900, -0.4837599052084600700 ) ) ;
#224 = PERSON_AND_ORGANIZATION ( #181, #199 ) ;
#225 = VECTOR ( 'NONE', #39, 1000.000000000000000 ) ;
#226 = CARTESIAN_POINT ( 'NONE',  ( 19.04999999999999700, -8.881784197001250400E-016, 1.406635011782470000 ) ) ;
#227 = CARTESIAN_POINT ( 'NONE',  ( 6.441111031252571500, -6.473570448548460200, -0.4837599052084317100 ) ) ;
#228 = CIRCLE ( 'NONE', #119, 19.05000000000000100 ) ;
#229 = PERSON_AND_ORGANIZATION_ROLE ( 'creator' ) ;
#230 = DATE_TIME_ROLE ( 'creation_date' ) ;
#231 = CC_DESIGN_PERSON_AND_ORGANIZATION_ASSIGNMENT ( #147, #81, ( #49 ) ) ;
#232 = DATE_AND_TIME ( #188, #176 ) ;
#233 = CALENDAR_DATE ( 2018, 21, 12 ) ;
#234 = VECTOR ( 'NONE', #86, 1000.000000000000000 ) ;
#235 = DIRECTION ( 'NONE',  ( 1.000000000000000000, 0.0000000000000000000, -0.0000000000000000000 ) ) ;
ENDSEC;
END-ISO-10303-21;
