ISO-10303-21;
HEADER;
FILE_DESCRIPTION (( 'STEP AP203' ),
    '1' );
FILE_NAME ('110-0415E BK7 pl-cx 38.1 F200.STEP',
    '2018-12-21T06:56:31',
    ( '' ),
    ( '' ),
    'SwSTEP 2.0',
    'SolidWorks 2017',
    '' );
FILE_SCHEMA (( 'CONFIG_CONTROL_DESIGN' ));
ENDSEC;

DATA;
#1 =( NAMED_UNIT ( * ) PLANE_ANGLE_UNIT ( ) SI_UNIT ( $, .RADIAN. ) );
#2 = COORDINATED_UNIVERSAL_TIME_OFFSET ( 2, 0, .AHEAD. ) ;
#3 = SECURITY_CLASSIFICATION_LEVEL ( 'unclassified' ) ;
#4 = VECTOR ( 'NONE', #180, 1000.000000000000000 ) ;
#5 = PRODUCT ( '110-0415E BK7 pl-cx 38.1 F200', '110-0415E BK7 pl-cx 38.1 F200', '', ( #26 ) ) ;
#6 = CALENDAR_DATE ( 2018, 21, 12 ) ;
#7 = AXIS2_PLACEMENT_3D ( 'NONE', #31, #209, #194 ) ;
#8 = CALENDAR_DATE ( 2018, 21, 12 ) ;
#9 = PERSON_AND_ORGANIZATION ( #198, #206 ) ;
#10 = CC_DESIGN_PERSON_AND_ORGANIZATION_ASSIGNMENT ( #183, #184, ( #164 ) ) ;
#11 = AXIS2_PLACEMENT_3D ( 'NONE', #157, #207, #41 ) ;
#12 = LOCAL_TIME ( 8, 56, 31.00000000000000000, #2 ) ;
#13 = EDGE_CURVE ( 'NONE', #73, #200, #189, .T. ) ;
#14 = DIRECTION ( 'NONE',  ( -0.0000000000000000000, -0.0000000000000000000, -1.000000000000000000 ) ) ;
#15 = DIRECTION ( 'NONE',  ( 1.000000000000000000, 0.0000000000000000000, 0.0000000000000000000 ) ) ;
#16 = AXIS2_PLACEMENT_3D ( 'NONE', #75, #78, #121 ) ;
#17 = APPROVAL_PERSON_ORGANIZATION ( #54, #175, #133 ) ;
#18 = CARTESIAN_POINT ( 'NONE',  ( 6.471502145222717500, 6.500699386388879100, -0.6088946284586729300 ) ) ;
#19 = COORDINATED_UNIVERSAL_TIME_OFFSET ( 2, 0, .AHEAD. ) ;
#20 = DIRECTION ( 'NONE',  ( 1.000000000000000000, 0.0000000000000000000, 0.0000000000000000000 ) ) ;
#21 = CC_DESIGN_APPROVAL ( #100, ( #87 ) ) ;
#22 = DIRECTION ( 'NONE',  ( 1.000000000000000000, 0.0000000000000000000, 0.0000000000000000000 ) ) ;
#23 = AXIS2_PLACEMENT_3D ( 'NONE', #113, #149, #216 ) ;
#24 = EDGE_LOOP ( 'NONE', ( #109, #156, #116, #112, #181 ) ) ;
#25 = APPLICATION_CONTEXT ( 'configuration controlled 3d designs of mechanical parts and assemblies' ) ;
#26 = MECHANICAL_CONTEXT ( 'NONE', #132, 'mechanical' ) ;
#27 = LOCAL_TIME ( 8, 56, 31.00000000000000000, #130 ) ;
#28 = ORIENTED_EDGE ( 'NONE', *, *, #43, .F. ) ;
#29 = ADVANCED_FACE ( 'NONE', ( #86 ), #219, .T. ) ;
#30 = DIRECTION ( 'NONE',  ( 0.0000000000000000000, 0.0000000000000000000, 1.000000000000000000 ) ) ;
#31 = CARTESIAN_POINT ( 'NONE',  ( -4.662936703425659800E-015, -8.881784197001250400E-016, 1.763058160291790100 ) ) ;
#32 = DIRECTION ( 'NONE',  ( 0.0000000000000000000, 0.0000000000000000000, 1.000000000000000000 ) ) ;
#33 = CARTESIAN_POINT ( 'NONE',  ( -2.081668171172168500E-014, -19.27595127687520500, 1.805501607334077900 ) ) ;
#34 = CARTESIAN_POINT ( 'NONE',  ( 7.105427357601001100E-015, -6.500699386388828500, -0.6088946284586894700 ) ) ;
#35 = EDGE_CURVE ( 'NONE', #96, #172, #67, .T. ) ;
#36 = DATE_AND_TIME ( #159, #12 ) ;
#37 = CARTESIAN_POINT ( 'NONE',  ( -19.05000000000000400, 1.444773732675583000E-015, 1.763058160291790100 ) ) ;
#38 = FACE_OUTER_BOUND ( 'NONE', #39, .T. ) ;
#39 = EDGE_LOOP ( 'NONE', ( #28, #169 ) ) ;
#40 =( BOUNDED_SURFACE ( )  B_SPLINE_SURFACE ( 3, 3, ( 
 ( #59, #62, #83, #33 ),
 ( #214, #108, #234, #126 ),
 ( #191, #81, #211, #128 ),
 ( #107, #85, #144, #229 ) ),
 .UNSPECIFIED., .F., .F., .F. ) 
 B_SPLINE_SURFACE_WITH_KNOTS ( ( 4, 4 ),
 ( 4, 4 ),
 ( 0.0000000000000000000, 1.000000000000000000 ),
 ( 0.0000000000000000000, 1.000000000000000000 ),
 .UNSPECIFIED. ) 
 GEOMETRIC_REPRESENTATION_ITEM ( )  RATIONAL_B_SPLINE_SURFACE ( (
 ( 1.000000000000000000, 0.9971289860269588700, 0.9971289860269588700, 1.000000000000000000),
 ( 0.9884039716934227600, 0.9855662500796815700, 0.9855662500796815700, 0.9884039716934227600),
 ( 0.9884039716934227600, 0.9855662500796815700, 0.9855662500796815700, 0.9884039716934227600),
 ( 1.000000000000000000, 0.9971289860269588700, 0.9971289860269588700, 1.000000000000000000) ) ) 
 REPRESENTATION_ITEM ( '' )  SURFACE ( )  );
#41 = DIRECTION ( 'NONE',  ( 1.000000000000000000, 0.0000000000000000000, 0.0000000000000000000 ) ) ;
#42 = DATE_AND_TIME ( #6, #27 ) ;
#43 = EDGE_CURVE ( 'NONE', #172, #96, #143, .T. ) ;
#44 = PLANE ( 'NONE',  #97 ) ;
#45 = CC_DESIGN_PERSON_AND_ORGANIZATION_ASSIGNMENT ( #114, #51, ( #127 ) ) ;
#46 = CARTESIAN_POINT ( 'NONE',  ( 19.04999999999999700, -8.881784197001250400E-016, 1.763058160291790100 ) ) ;
#47 = CARTESIAN_POINT ( 'NONE',  ( 7.105427357601000300E-015, -19.05000000000000400, 1.763058160291790700 ) ) ;
#48 = AXIS2_PLACEMENT_3D ( 'NONE', #171, #99, #142 ) ;
#49 = CC_DESIGN_PERSON_AND_ORGANIZATION_ASSIGNMENT ( #9, #134, ( #5 ) ) ;
#50 = AXIS2_PLACEMENT_3D ( 'NONE', #231, #32, #22 ) ;
#51 = PERSON_AND_ORGANIZATION_ROLE ( 'creator' ) ;
#52 = FACE_OUTER_BOUND ( 'NONE', #168, .T. ) ;
#53 = ORIENTED_EDGE ( 'NONE', *, *, #13, .T. ) ;
#54 = PERSON_AND_ORGANIZATION ( #198, #206 ) ;
#55 = EDGE_LOOP ( 'NONE', ( #208, #217, #167 ) ) ;
#56 = CARTESIAN_POINT ( 'NONE',  ( -4.662936703425659800E-015, -8.881784197001250400E-016, 1.763058160291790100 ) ) ;
#57 = CC_DESIGN_DATE_AND_TIME_ASSIGNMENT ( #66, #185, ( #164 ) ) ;
#58 = CARTESIAN_POINT ( 'NONE',  ( 7.105427357601001100E-015, 6.500699386388880000, -0.6088946284586731500 ) ) ;
#59 = CARTESIAN_POINT ( 'NONE',  ( -18.82966557295247200, -19.27595127687520500, 3.558684182706883800 ) ) ;
#60 = CARTESIAN_POINT ( 'NONE',  ( 12.61647949661271700, -19.27595127687520100, 2.391578433883305300 ) ) ;
#61 = CIRCLE ( 'NONE', #71, 19.05000000000000100 ) ;
#62 = CARTESIAN_POINT ( 'NONE',  ( -12.61647949661274900, -19.27595127687520100, 2.391578433883314600 ) ) ;
#63 = VERTEX_POINT ( 'NONE', #140 ) ;
#64 = ADVANCED_BREP_SHAPE_REPRESENTATION ( '110-0415E BK7 pl-cx 38.1 F200', ( #88, #50 ), #91 ) ;
#65 = AXIS2_PLACEMENT_3D ( 'NONE', #106, #158, #20 ) ;
#66 = DATE_AND_TIME ( #8, #135 ) ;
#67 = CIRCLE ( 'NONE', #16, 19.05000000000000100 ) ;
#68 = ORIENTED_EDGE ( 'NONE', *, *, #205, .T. ) ;
#69 = PERSON_AND_ORGANIZATION ( #198, #206 ) ;
#70 = ORIENTED_EDGE ( 'NONE', *, *, #212, .T. ) ;
#71 = AXIS2_PLACEMENT_3D ( 'NONE', #125, #14, #15 ) ;
#72 = PERSON_AND_ORGANIZATION ( #198, #206 ) ;
#73 = VERTEX_POINT ( 'NONE', #174 ) ;
#74 = UNCERTAINTY_MEASURE_WITH_UNIT (LENGTH_MEASURE( 1.000000000000000100E-005 ), #165, 'distance_accuracy_value', 'NONE');
#75 = CARTESIAN_POINT ( 'NONE',  ( -4.662936703425659800E-015, -8.881784197001250400E-016, 4.299999999999999800 ) ) ;
#76 = ORIENTED_EDGE ( 'NONE', *, *, #173, .F. ) ;
#77 = ADVANCED_FACE ( 'NONE', ( #137 ), #146, .T. ) ;
#78 = DIRECTION ( 'NONE',  ( -0.0000000000000000000, -0.0000000000000000000, -1.000000000000000000 ) ) ;
#79 = LINE ( 'NONE', #80, #4 ) ;
#80 = CARTESIAN_POINT ( 'NONE',  ( 19.04999999999999700, -8.881784197001250400E-016, 1.763058160291790100 ) ) ;
#81 = CARTESIAN_POINT ( 'NONE',  ( -12.91513463081720700, 6.500699386388879100, -0.008944292002473076800 ) ) ;
#82 = CARTESIAN_POINT ( 'NONE',  ( 6.471502145222718400, -6.500699386388829400, -0.6088946284586895800 ) ) ;
#83 = CARTESIAN_POINT ( 'NONE',  ( -6.321852343115826200, -19.27595127687520100, 1.805501607334079900 ) ) ;
#84 = AXIS2_PLACEMENT_3D ( 'NONE', #56, #103, #227 ) ;
#85 = CARTESIAN_POINT ( 'NONE',  ( -12.61647949661274700, 19.27595127687525100, 2.391578433883329200 ) ) ;
#86 = FACE_OUTER_BOUND ( 'NONE', #24, .T. ) ;
#87 = PRODUCT_DEFINITION ( 'UNKNOWN', '', #127, #129 ) ;
#88 = MANIFOLD_SOLID_BREP ( 'Imported1', #221 ) ;
#89 = CALENDAR_DATE ( 2018, 21, 12 ) ;
#90 = FACE_OUTER_BOUND ( 'NONE', #55, .T. ) ;
#91 =( GEOMETRIC_REPRESENTATION_CONTEXT ( 3 ) GLOBAL_UNCERTAINTY_ASSIGNED_CONTEXT ( ( #74 ) ) GLOBAL_UNIT_ASSIGNED_CONTEXT ( ( #165, #1, #182 ) ) REPRESENTATION_CONTEXT ( 'NONE', 'WORKASPACE' ) );
#92 = DIRECTION ( 'NONE',  ( 0.0000000000000000000, 0.0000000000000000000, 1.000000000000000000 ) ) ;
#93 = LINE ( 'NONE', #37, #115 ) ;
#94 = APPROVAL_ROLE ( '' ) ;
#95 = DATE_TIME_ROLE ( 'creation_date' ) ;
#96 = VERTEX_POINT ( 'NONE', #232 ) ;
#97 = AXIS2_PLACEMENT_3D ( 'NONE', #192, #178, #145 ) ;
#98 = COORDINATED_UNIVERSAL_TIME_OFFSET ( 2, 0, .AHEAD. ) ;
#99 = DIRECTION ( 'NONE',  ( -0.0000000000000000000, -0.0000000000000000000, -1.000000000000000000 ) ) ;
#100 = APPROVAL ( #220, 'UNSPECIFIED' ) ;
#101 = COORDINATED_UNIVERSAL_TIME_OFFSET ( 2, 0, .AHEAD. ) ;
#102 = CC_DESIGN_SECURITY_CLASSIFICATION ( #164, ( #127 ) ) ;
#103 = DIRECTION ( 'NONE',  ( 0.0000000000000000000, 0.0000000000000000000, 1.000000000000000000 ) ) ;
#104 = CARTESIAN_POINT ( 'NONE',  ( 19.27539818007354100, 6.500699386388880900, 1.185788983512601900 ) ) ;
#105 =( BOUNDED_SURFACE ( )  B_SPLINE_SURFACE ( 3, 3, ( 
 ( #215, #233, #60, #162 ),
 ( #34, #82, #179, #124 ),
 ( #58, #18, #111, #104 ),
 ( #190, #177, #213, #235 ) ),
 .UNSPECIFIED., .F., .F., .F. ) 
 B_SPLINE_SURFACE_WITH_KNOTS ( ( 4, 4 ),
 ( 4, 4 ),
 ( 0.0000000000000000000, 1.000000000000000000 ),
 ( 0.0000000000000000000, 1.000000000000000000 ),
 .UNSPECIFIED. ) 
 GEOMETRIC_REPRESENTATION_ITEM ( )  RATIONAL_B_SPLINE_SURFACE ( (
 ( 1.000000000000000000, 0.9971289860269588700, 0.9971289860269588700, 1.000000000000000000),
 ( 0.9884039716934227600, 0.9855662500796815700, 0.9855662500796815700, 0.9884039716934227600),
 ( 0.9884039716934227600, 0.9855662500796815700, 0.9855662500796815700, 0.9884039716934227600),
 ( 1.000000000000000000, 0.9971289860269588700, 0.9971289860269588700, 1.000000000000000000) ) ) 
 REPRESENTATION_ITEM ( '' )  SURFACE ( )  );
#106 = CARTESIAN_POINT ( 'NONE',  ( -4.662936703425659800E-015, -8.881784197001250400E-016, 1.763058160291790100 ) ) ;
#107 = CARTESIAN_POINT ( 'NONE',  ( -18.82966557295246800, 19.27595127687525100, 3.558684182706897600 ) ) ;
#108 = CARTESIAN_POINT ( 'NONE',  ( -12.91513463081721000, -6.500699386388829400, -0.008944292002489773500 ) ) ;
#109 = ORIENTED_EDGE ( 'NONE', *, *, #212, .F. ) ;
#110 = CARTESIAN_POINT ( 'NONE',  ( 19.04999999999999700, -8.881784197001250400E-016, 4.299999999999999800 ) ) ;
#111 = CARTESIAN_POINT ( 'NONE',  ( 12.91513463081717600, 6.500699386388880000, -0.008944292002483051500 ) ) ;
#112 = ORIENTED_EDGE ( 'NONE', *, *, #173, .T. ) ;
#113 = CARTESIAN_POINT ( 'NONE',  ( 7.105427357601000300E-015, 3.552713678800500300E-014, 103.8000000000000000 ) ) ;
#114 = PERSON_AND_ORGANIZATION ( #198, #206 ) ;
#115 = VECTOR ( 'NONE', #92, 1000.000000000000000 ) ;
#116 = ORIENTED_EDGE ( 'NONE', *, *, #166, .F. ) ;
#117 = PERSON_AND_ORGANIZATION_ROLE ( 'design_supplier' ) ;
#118 = ADVANCED_FACE ( 'NONE', ( #38 ), #44, .T. ) ;
#119 = ORIENTED_EDGE ( 'NONE', *, *, #13, .F. ) ;
#120 = VERTEX_POINT ( 'NONE', #47 ) ;
#121 = DIRECTION ( 'NONE',  ( 1.000000000000000000, 0.0000000000000000000, 0.0000000000000000000 ) ) ;
#122 = PERSON_AND_ORGANIZATION ( #198, #206 ) ;
#123 = DIRECTION ( 'NONE',  ( 1.000000000000000000, 0.0000000000000000000, 0.0000000000000000000 ) ) ;
#124 = CARTESIAN_POINT ( 'NONE',  ( 19.27539818007354500, -6.500699386388827600, 1.185788983512585700 ) ) ;
#125 = CARTESIAN_POINT ( 'NONE',  ( -4.662936703425659800E-015, -8.881784197001250400E-016, 1.763058160291790100 ) ) ;
#126 = CARTESIAN_POINT ( 'NONE',  ( -2.081668171172168800E-014, -6.500699386388828500, -0.6088946284586842500 ) ) ;
#127 = PRODUCT_DEFINITION_FORMATION_WITH_SPECIFIED_SOURCE ( 'ANY', '', #5, .NOT_KNOWN. ) ;
#128 = CARTESIAN_POINT ( 'NONE',  ( -2.081668171172168800E-014, 6.500699386388880000, -0.6088946284586677100 ) ) ;
#129 = DESIGN_CONTEXT ( 'detailed design', #25, 'design' ) ;
#130 = COORDINATED_UNIVERSAL_TIME_OFFSET ( 2, 0, .AHEAD. ) ;
#131 = CIRCLE ( 'NONE', #23, 103.7999999999999800 ) ;
#132 = APPLICATION_CONTEXT ( 'configuration controlled 3d designs of mechanical parts and assemblies' ) ;
#133 = APPROVAL_ROLE ( '' ) ;
#134 = PERSON_AND_ORGANIZATION_ROLE ( 'design_owner' ) ;
#135 = LOCAL_TIME ( 8, 56, 31.00000000000000000, #101 ) ;
#136 = ADVANCED_FACE ( 'NONE', ( #90 ), #40, .T. ) ;
#137 = FACE_OUTER_BOUND ( 'NONE', #230, .T. ) ;
#138 = CC_DESIGN_PERSON_AND_ORGANIZATION_ASSIGNMENT ( #160, #203, ( #87 ) ) ;
#139 = CIRCLE ( 'NONE', #7, 19.05000000000000100 ) ;
#140 = CARTESIAN_POINT ( 'NONE',  ( -19.05000000000000400, 1.444773732675583000E-015, 1.763058160291790100 ) ) ;
#141 = ADVANCED_FACE ( 'NONE', ( #52 ), #105, .T. ) ;
#142 = DIRECTION ( 'NONE',  ( 1.000000000000000000, 8.881784197001252300E-016, 0.0000000000000000000 ) ) ;
#143 = CIRCLE ( 'NONE', #11, 19.05000000000000100 ) ;
#144 = CARTESIAN_POINT ( 'NONE',  ( -6.321852343115825300, 19.27595127687525100, 1.805501607334094400 ) ) ;
#145 = DIRECTION ( 'NONE',  ( 1.000000000000000000, 0.0000000000000000000, -0.0000000000000000000 ) ) ;
#146 = CYLINDRICAL_SURFACE ( 'NONE', #84, 19.05000000000000100 ) ;
#147 = CC_DESIGN_PERSON_AND_ORGANIZATION_ASSIGNMENT ( #122, #117, ( #127 ) ) ;
#148 = ORIENTED_EDGE ( 'NONE', *, *, #35, .T. ) ;
#149 = DIRECTION ( 'NONE',  ( 1.000000000000000000, 0.0000000000000000000, 0.0000000000000000000 ) ) ;
#150 = APPROVAL_ROLE ( '' ) ;
#151 = CC_DESIGN_DATE_AND_TIME_ASSIGNMENT ( #193, #95, ( #87 ) ) ;
#152 = APPROVAL_STATUS ( 'not_yet_approved' ) ;
#153 = CC_DESIGN_APPROVAL ( #196, ( #127 ) ) ;
#154 = PRODUCT_DEFINITION_SHAPE ( 'NONE', 'NONE',  #87 ) ;
#155 = CIRCLE ( 'NONE', #65, 19.05000000000000100 ) ;
#156 = ORIENTED_EDGE ( 'NONE', *, *, #197, .F. ) ;
#157 = CARTESIAN_POINT ( 'NONE',  ( -4.662936703425659800E-015, -8.881784197001250400E-016, 4.299999999999999800 ) ) ;
#158 = DIRECTION ( 'NONE',  ( -0.0000000000000000000, -0.0000000000000000000, -1.000000000000000000 ) ) ;
#159 = CALENDAR_DATE ( 2018, 21, 12 ) ;
#160 = PERSON_AND_ORGANIZATION ( #198, #206 ) ;
#161 = ORIENTED_EDGE ( 'NONE', *, *, #166, .T. ) ;
#162 = CARTESIAN_POINT ( 'NONE',  ( 18.82966557295243200, -19.27595127687520500, 3.558684182706869100 ) ) ;
#163 = CALENDAR_DATE ( 2018, 21, 12 ) ;
#164 = SECURITY_CLASSIFICATION ( '', '', #3 ) ;
#165 =( LENGTH_UNIT ( ) NAMED_UNIT ( * ) SI_UNIT ( .MILLI., .METRE. ) );
#166 = EDGE_CURVE ( 'NONE', #200, #120, #155, .T. ) ;
#167 = ORIENTED_EDGE ( 'NONE', *, *, #188, .T. ) ;
#168 = EDGE_LOOP ( 'NONE', ( #161, #68, #53 ) ) ;
#169 = ORIENTED_EDGE ( 'NONE', *, *, #35, .F. ) ;
#170 = SHAPE_DEFINITION_REPRESENTATION ( #154, #64 ) ;
#171 = CARTESIAN_POINT ( 'NONE',  ( -4.662936703425659800E-015, -8.881784197001250400E-016, 1.763058160291790100 ) ) ;
#172 = VERTEX_POINT ( 'NONE', #110 ) ;
#173 = EDGE_CURVE ( 'NONE', #200, #172, #79, .T. ) ;
#174 = CARTESIAN_POINT ( 'NONE',  ( 7.105427357601000300E-015, 19.05000000000004000, 1.763058160291790700 ) ) ;
#175 = APPROVAL ( #152, 'UNSPECIFIED' ) ;
#176 = DATE_AND_TIME ( #163, #199 ) ;
#177 = CARTESIAN_POINT ( 'NONE',  ( 6.321852343115803100, 19.27595127687525100, 1.805501607334087000 ) ) ;
#178 = DIRECTION ( 'NONE',  ( 0.0000000000000000000, 0.0000000000000000000, 1.000000000000000000 ) ) ;
#179 = CARTESIAN_POINT ( 'NONE',  ( 12.91513463081717800, -6.500699386388828500, -0.008944292002499316200 ) ) ;
#180 = DIRECTION ( 'NONE',  ( 0.0000000000000000000, 0.0000000000000000000, 1.000000000000000000 ) ) ;
#181 = ORIENTED_EDGE ( 'NONE', *, *, #43, .T. ) ;
#182 =( NAMED_UNIT ( * ) SI_UNIT ( $, .STERADIAN. ) SOLID_ANGLE_UNIT ( ) );
#183 = PERSON_AND_ORGANIZATION ( #198, #206 ) ;
#184 = PERSON_AND_ORGANIZATION_ROLE ( 'classification_officer' ) ;
#185 = DATE_TIME_ROLE ( 'classification_date' ) ;
#186 = CC_DESIGN_APPROVAL ( #175, ( #164 ) ) ;
#187 = APPROVAL_DATE_TIME ( #42, #100 ) ;
#188 = EDGE_CURVE ( 'NONE', #63, #73, #61, .T. ) ;
#189 = CIRCLE ( 'NONE', #48, 19.05000000000000100 ) ;
#190 = CARTESIAN_POINT ( 'NONE',  ( 7.105427357601000300E-015, 19.27595127687525100, 1.805501607334086800 ) ) ;
#191 = CARTESIAN_POINT ( 'NONE',  ( -19.27539818007358000, 6.500699386388880000, 1.185788983512617000 ) ) ;
#192 = CARTESIAN_POINT ( 'NONE',  ( 0.0000000000000000000, 39.06600000000000300, 4.299999999999999800 ) ) ;
#193 = DATE_AND_TIME ( #89, #202 ) ;
#194 = DIRECTION ( 'NONE',  ( 1.000000000000000000, 0.0000000000000000000, 0.0000000000000000000 ) ) ;
#195 = APPROVAL_PERSON_ORGANIZATION ( #69, #100, #150 ) ;
#196 = APPROVAL ( #223, 'UNSPECIFIED' ) ;
#197 = EDGE_CURVE ( 'NONE', #120, #63, #139, .T. ) ;
#198 = PERSON ( 'UNSPECIFIED', 'UNSPECIFIED', 'UNSPECIFIED', ('UNSPECIFIED'), ('UNSPECIFIED'), ('UNSPECIFIED') ) ;
#199 = LOCAL_TIME ( 8, 56, 31.00000000000000000, #98 ) ;
#200 = VERTEX_POINT ( 'NONE', #46 ) ;
#201 = PRODUCT_RELATED_PRODUCT_CATEGORY ( 'detail', '', ( #5 ) ) ;
#202 = LOCAL_TIME ( 8, 56, 31.00000000000000000, #19 ) ;
#203 = PERSON_AND_ORGANIZATION_ROLE ( 'creator' ) ;
#204 = APPLICATION_PROTOCOL_DEFINITION ( 'international standard', 'config_control_design', 1994, #25 ) ;
#205 = EDGE_CURVE ( 'NONE', #120, #73, #131, .T. ) ;
#206 = ORGANIZATION ( 'UNSPECIFIED', 'UNSPECIFIED', '' ) ;
#207 = DIRECTION ( 'NONE',  ( -0.0000000000000000000, -0.0000000000000000000, -1.000000000000000000 ) ) ;
#208 = ORIENTED_EDGE ( 'NONE', *, *, #205, .F. ) ;
#209 = DIRECTION ( 'NONE',  ( -0.0000000000000000000, -0.0000000000000000000, -1.000000000000000000 ) ) ;
#210 = APPROVAL_DATE_TIME ( #176, #175 ) ;
#211 = CARTESIAN_POINT ( 'NONE',  ( -6.471502145222738800, 6.500699386388879100, -0.6088946284586659300 ) ) ;
#212 = EDGE_CURVE ( 'NONE', #63, #96, #93, .T. ) ;
#213 = CARTESIAN_POINT ( 'NONE',  ( 12.61647949661271500, 19.27595127687525100, 2.391578433883319000 ) ) ;
#214 = CARTESIAN_POINT ( 'NONE',  ( -19.27539818007358400, -6.500699386388828500, 1.185788983512600500 ) ) ;
#215 = CARTESIAN_POINT ( 'NONE',  ( 7.105427357601000300E-015, -19.27595127687520500, 1.805501607334072800 ) ) ;
#216 = DIRECTION ( 'NONE',  ( 0.0000000000000000000, -1.000000000000000000, 2.673947554492188900E-016 ) ) ;
#217 = ORIENTED_EDGE ( 'NONE', *, *, #197, .T. ) ;
#218 = APPROVAL_PERSON_ORGANIZATION ( #72, #196, #94 ) ;
#219 = CYLINDRICAL_SURFACE ( 'NONE', #224, 19.05000000000000100 ) ;
#220 = APPROVAL_STATUS ( 'not_yet_approved' ) ;
#221 = CLOSED_SHELL ( 'NONE', ( #141, #77, #136, #29, #118 ) ) ;
#222 = APPLICATION_PROTOCOL_DEFINITION ( 'international standard', 'config_control_design', 1994, #132 ) ;
#223 = APPROVAL_STATUS ( 'not_yet_approved' ) ;
#224 = AXIS2_PLACEMENT_3D ( 'NONE', #226, #30, #123 ) ;
#225 = ORIENTED_EDGE ( 'NONE', *, *, #188, .F. ) ;
#226 = CARTESIAN_POINT ( 'NONE',  ( -4.662936703425659800E-015, -8.881784197001250400E-016, 1.763058160291790100 ) ) ;
#227 = DIRECTION ( 'NONE',  ( 1.000000000000000000, 0.0000000000000000000, 0.0000000000000000000 ) ) ;
#228 = APPROVAL_DATE_TIME ( #36, #196 ) ;
#229 = CARTESIAN_POINT ( 'NONE',  ( -2.081668171172168500E-014, 19.27595127687525100, 1.805501607334092200 ) ) ;
#230 = EDGE_LOOP ( 'NONE', ( #225, #70, #148, #76, #119 ) ) ;
#231 = CARTESIAN_POINT ( 'NONE',  ( 0.0000000000000000000, 0.0000000000000000000, 0.0000000000000000000 ) ) ;
#232 = CARTESIAN_POINT ( 'NONE',  ( -19.05000000000000400, 1.444773732675583000E-015, 4.299999999999999800 ) ) ;
#233 = CARTESIAN_POINT ( 'NONE',  ( 6.321852343115804000, -19.27595127687520100, 1.805501607334072800 ) ) ;
#234 = CARTESIAN_POINT ( 'NONE',  ( -6.471502145222739700, -6.500699386388829400, -0.6088946284586823600 ) ) ;
#235 = CARTESIAN_POINT ( 'NONE',  ( 18.82966557295242900, 19.27595127687525100, 3.558684182706882900 ) ) ;
ENDSEC;
END-ISO-10303-21;
