ISO-10303-21;
HEADER;
FILE_DESCRIPTION (( 'STEP AP203' ),
    '1' );
FILE_NAME ('110-0411E BK7 pl-cx 38.1 F150.STEP',
    '2018-12-21T06:56:43',
    ( '' ),
    ( '' ),
    'SwSTEP 2.0',
    'SolidWorks 2017',
    '' );
FILE_SCHEMA (( 'CONFIG_CONTROL_DESIGN' ));
ENDSEC;

DATA;
#1 = CC_DESIGN_PERSON_AND_ORGANIZATION_ASSIGNMENT ( #68, #184, ( #224 ) ) ;
#2 = CARTESIAN_POINT ( 'NONE',  ( -19.36521736845197900, 6.560922210782623900, 1.596342713130269900 ) ) ;
#3 = CC_DESIGN_PERSON_AND_ORGANIZATION_ASSIGNMENT ( #146, #130, ( #218 ) ) ;
#4 = CARTESIAN_POINT ( 'NONE',  ( 6.539048983464404300, -6.560922210782639000, -0.8254449390846938500 ) ) ;
#5 = DIRECTION ( 'NONE',  ( 2.331176954593499900E-017, 1.086877198725570000E-033, 1.000000000000000000 ) ) ;
#6 = APPROVAL_ROLE ( '' ) ;
#7 = APPROVAL ( #165, 'UNSPECIFIED' ) ;
#8 = CARTESIAN_POINT ( 'NONE',  ( -6.268762800355047700, 19.27383488922829400, 2.424886160046368500 ) ) ;
#9 = PRODUCT ( '110-0411E BK7 pl-cx 38.1 F150', '110-0411E BK7 pl-cx 38.1 F150', '', ( #78 ) ) ;
#10 = CC_DESIGN_DATE_AND_TIME_ASSIGNMENT ( #45, #81, ( #218 ) ) ;
#11 = FACE_OUTER_BOUND ( 'NONE', #112, .T. ) ;
#12 = CARTESIAN_POINT ( 'NONE',  ( -4.662936703425659800E-015, -8.881784197001250400E-016, 2.368011691101359800 ) ) ;
#13 = DIRECTION ( 'NONE',  ( 1.000000000000000000, 0.0000000000000000000, -2.276539994720219300E-017 ) ) ;
#14 = CC_DESIGN_PERSON_AND_ORGANIZATION_ASSIGNMENT ( #80, #108, ( #9 ) ) ;
#15 = DIRECTION ( 'NONE',  ( -2.331176954593499900E-017, -1.086877198725570000E-033, -1.000000000000000000 ) ) ;
#16 = CARTESIAN_POINT ( 'NONE',  ( -2.131628207280299900E-014, -6.560922210782639000, -0.8254449390846939600 ) ) ;
#17 = CALENDAR_DATE ( 2018, 21, 12 ) ;
#18 = CARTESIAN_POINT ( 'NONE',  ( -2.131628207280299900E-014, -19.27383488922830100, 2.424886160046393800 ) ) ;
#19 = CARTESIAN_POINT ( 'NONE',  ( -4.662936703425659800E-015, -8.881784197001250400E-016, 2.368011691101350500 ) ) ;
#20 = CARTESIAN_POINT ( 'NONE',  ( 0.0000000000000000000, 0.0000000000000000000, 0.0000000000000000000 ) ) ;
#21 = APPLICATION_PROTOCOL_DEFINITION ( 'international standard', 'config_control_design', 1994, #186 ) ;
#22 = EDGE_CURVE ( 'NONE', #229, #217, #234, .T. ) ;
#23 = ADVANCED_FACE ( 'NONE', ( #115 ), #113, .T. ) ;
#24 = ADVANCED_FACE ( 'NONE', ( #31 ), #117, .T. ) ;
#25 = PERSON_AND_ORGANIZATION ( #189, #232 ) ;
#26 = ORIENTED_EDGE ( 'NONE', *, *, #49, .F. ) ;
#27 = DIRECTION ( 'NONE',  ( -2.331176954593499900E-017, -1.086877198725570000E-033, -1.000000000000000000 ) ) ;
#28 = DIRECTION ( 'NONE',  ( -2.331176954593499900E-017, -1.086877198725570000E-033, -1.000000000000000000 ) ) ;
#29 = DATE_AND_TIME ( #50, #84 ) ;
#30 = CARTESIAN_POINT ( 'NONE',  ( -13.02755578856428700, 6.560922210782624800, -0.01400113430186479900 ) ) ;
#31 = FACE_OUTER_BOUND ( 'NONE', #105, .T. ) ;
#32 = EDGE_CURVE ( 'NONE', #217, #109, #66, .T. ) ;
#33 = CARTESIAN_POINT ( 'NONE',  ( 13.02755578856423000, 6.560922210782623900, -0.01400113430185287400 ) ) ;
#34 = DIRECTION ( 'NONE',  ( -2.331176954593499900E-017, -1.086877198725570000E-033, -1.000000000000000000 ) ) ;
#35 = SHAPE_DEFINITION_REPRESENTATION ( #135, #118 ) ;
#36 =( BOUNDED_SURFACE ( )  B_SPLINE_SURFACE ( 3, 3, ( 
 ( #75, #203, #103, #88 ),
 ( #54, #179, #71, #199 ),
 ( #2, #30, #156, #110 ),
 ( #142, #208, #8, #60 ) ),
 .UNSPECIFIED., .F., .F., .T. ) 
 B_SPLINE_SURFACE_WITH_KNOTS ( ( 4, 4 ),
 ( 4, 4 ),
 ( 0.0000000000000000000, 1.000000000000000000 ),
 ( 0.0000000000000000000, 1.000000000000000000 ),
 .UNSPECIFIED. ) 
 GEOMETRIC_REPRESENTATION_ITEM ( )  RATIONAL_B_SPLINE_SURFACE ( (
 ( 1.000000000000000000, 0.9948471428090522900, 0.9948471428090522900, 1.000000000000000000),
 ( 0.9792238687396960200, 0.9741780679861130600, 0.9741780679861130600, 0.9792238687396960200),
 ( 0.9792238687396960200, 0.9741780679861130600, 0.9741780679861130600, 0.9792238687396960200),
 ( 1.000000000000000000, 0.9948471428090522900, 0.9948471428090522900, 1.000000000000000000) ) ) 
 REPRESENTATION_ITEM ( '' )  SURFACE ( )  );
#37 = ORIENTED_EDGE ( 'NONE', *, *, #207, .F. ) ;
#38 = APPLICATION_PROTOCOL_DEFINITION ( 'international standard', 'config_control_design', 1994, #96 ) ;
#39 = DIRECTION ( 'NONE',  ( -2.331176954593499900E-017, -1.086877198725570000E-033, -1.000000000000000000 ) ) ;
#40 =( NAMED_UNIT ( * ) PLANE_ANGLE_UNIT ( ) SI_UNIT ( $, .RADIAN. ) );
#41 = APPROVAL_PERSON_ORGANIZATION ( #65, #141, #6 ) ;
#42 = APPROVAL_STATUS ( 'not_yet_approved' ) ;
#43 = ORIENTED_EDGE ( 'NONE', *, *, #87, .T. ) ;
#44 = CARTESIAN_POINT ( 'NONE',  ( 19.04999999999999700, -8.881784197001250400E-016, 2.368011691101350000 ) ) ;
#45 = DATE_AND_TIME ( #140, #180 ) ;
#46 = CYLINDRICAL_SURFACE ( 'NONE', #98, 19.05000000000000100 ) ;
#47 = EDGE_CURVE ( 'NONE', #64, #229, #210, .T. ) ;
#48 = ORIENTED_EDGE ( 'NONE', *, *, #93, .F. ) ;
#49 = EDGE_CURVE ( 'NONE', #228, #109, #175, .T. ) ;
#50 = CALENDAR_DATE ( 2018, 21, 12 ) ;
#51 = DIRECTION ( 'NONE',  ( 0.0000000000000000000, 0.0000000000000000000, 1.000000000000000000 ) ) ;
#52 = CALENDAR_DATE ( 2018, 21, 12 ) ;
#53 = ORIENTED_EDGE ( 'NONE', *, *, #67, .T. ) ;
#54 = CARTESIAN_POINT ( 'NONE',  ( -19.36521736845197600, -6.560922210782639000, 1.596342713130289400 ) ) ;
#55 = CARTESIAN_POINT ( 'NONE',  ( -2.131628207280299900E-014, 6.560922210782623900, -0.8254449390847130600 ) ) ;
#56 = CARTESIAN_POINT ( 'NONE',  ( -4.662936703425659800E-015, -8.881784197001250400E-016, 2.368011691101350500 ) ) ;
#57 = PERSON_AND_ORGANIZATION_ROLE ( 'creator' ) ;
#58 = AXIS2_PLACEMENT_3D ( 'NONE', #145, #39, #162 ) ;
#59 = CARTESIAN_POINT ( 'NONE',  ( -2.131628207280299900E-014, 19.04999999999997600, 2.368011691101341100 ) ) ;
#60 = CARTESIAN_POINT ( 'NONE',  ( -3.816391647148975600E-014, 19.27383488922829000, 2.424886160046367600 ) ) ;
#61 = ORIENTED_EDGE ( 'NONE', *, *, #87, .F. ) ;
#62 = APPROVAL_ROLE ( '' ) ;
#63 = CC_DESIGN_SECURITY_CLASSIFICATION ( #218, ( #224 ) ) ;
#64 = VERTEX_POINT ( 'NONE', #74 ) ;
#65 = PERSON_AND_ORGANIZATION ( #189, #232 ) ;
#66 = CIRCLE ( 'NONE', #134, 19.05000000000000100 ) ;
#67 = EDGE_CURVE ( 'NONE', #228, #64, #104, .T. ) ;
#68 = PERSON_AND_ORGANIZATION ( #189, #232 ) ;
#69 = LOCAL_TIME ( 8, 56, 43.00000000000000000, #158 ) ;
#70 = CIRCLE ( 'NONE', #152, 77.81000000000000200 ) ;
#71 = CARTESIAN_POINT ( 'NONE',  ( -6.539048983464466500, -6.560922210782638200, -0.8254449390847035100 ) ) ;
#72 = DIRECTION ( 'NONE',  ( 1.000000000000000000, 0.0000000000000000000, -2.276539994720219300E-017 ) ) ;
#73 = PRODUCT_RELATED_PRODUCT_CATEGORY ( 'detail', '', ( #9 ) ) ;
#74 = CARTESIAN_POINT ( 'NONE',  ( -2.131628207280299900E-014, -19.04999999999999700, 2.368011691101355300 ) ) ;
#75 = CARTESIAN_POINT ( 'NONE',  ( -18.56477212009264100, -19.27383488922830100, 4.746571222041612100 ) ) ;
#76 =( NAMED_UNIT ( * ) SI_UNIT ( $, .STERADIAN. ) SOLID_ANGLE_UNIT ( ) );
#77 = MANIFOLD_SOLID_BREP ( 'Imported1', #213 ) ;
#78 = MECHANICAL_CONTEXT ( 'NONE', #186, 'mechanical' ) ;
#79 = COORDINATED_UNIVERSAL_TIME_OFFSET ( 2, 0, .AHEAD. ) ;
#80 = PERSON_AND_ORGANIZATION ( #189, #232 ) ;
#81 = DATE_TIME_ROLE ( 'classification_date' ) ;
#82 = APPROVAL_DATE_TIME ( #149, #230 ) ;
#83 = AXIS2_PLACEMENT_3D ( 'NONE', #12, #150, #13 ) ;
#84 = LOCAL_TIME ( 8, 56, 43.00000000000000000, #128 ) ;
#85 = AXIS2_PLACEMENT_3D ( 'NONE', #138, #28, #155 ) ;
#86 = DATE_AND_TIME ( #193, #132 ) ;
#87 = EDGE_CURVE ( 'NONE', #191, #228, #171, .T. ) ;
#88 = CARTESIAN_POINT ( 'NONE',  ( -4.510281037539698400E-014, -19.27383488922830100, 2.424886160046382200 ) ) ;
#89 = CARTESIAN_POINT ( 'NONE',  ( -2.131628207280299900E-014, -2.131628207280299900E-014, 77.81000000000000200 ) ) ;
#90 = DIRECTION ( 'NONE',  ( 1.000000000000000000, 0.0000000000000000000, -4.553079989440438700E-017 ) ) ;
#91 = CARTESIAN_POINT ( 'NONE',  ( 19.36521736845192600, -6.560922210782639900, 1.596342713130299400 ) ) ;
#92 = CARTESIAN_POINT ( 'NONE',  ( 13.02755578856422900, -6.560922210782639000, -0.01400113430183422400 ) ) ;
#93 = EDGE_CURVE ( 'NONE', #64, #191, #70, .T. ) ;
#94 = CARTESIAN_POINT ( 'NONE',  ( -4.662936703425659800E-015, -8.881784197001250400E-016, 2.368011691101359800 ) ) ;
#95 = CARTESIAN_POINT ( 'NONE',  ( -19.05000000000000400, 1.444773732675583000E-015, 2.368011691101350900 ) ) ;
#96 = APPLICATION_CONTEXT ( 'configuration controlled 3d designs of mechanical parts and assemblies' ) ;
#97 = DATE_AND_TIME ( #52, #233 ) ;
#98 = AXIS2_PLACEMENT_3D ( 'NONE', #94, #125, #231 ) ;
#99 = ADVANCED_FACE ( 'NONE', ( #11 ), #174, .T. ) ;
#100 = CC_DESIGN_APPROVAL ( #230, ( #148 ) ) ;
#101 = FACE_OUTER_BOUND ( 'NONE', #221, .T. ) ;
#102 = ORIENTED_EDGE ( 'NONE', *, *, #67, .F. ) ;
#103 = CARTESIAN_POINT ( 'NONE',  ( -6.268762800355050400, -19.27383488922830400, 2.424886160046384500 ) ) ;
#104 = CIRCLE ( 'NONE', #170, 19.05000000000000100 ) ;
#105 = EDGE_LOOP ( 'NONE', ( #187, #127 ) ) ;
#106 = CARTESIAN_POINT ( 'NONE',  ( 18.56477212009259100, 19.27383488922829000, 4.746571222041608500 ) ) ;
#107 = CARTESIAN_POINT ( 'NONE',  ( 19.04999999999999700, -8.881784197001250400E-016, 2.368011691101359300 ) ) ;
#108 = PERSON_AND_ORGANIZATION_ROLE ( 'design_owner' ) ;
#109 = VERTEX_POINT ( 'NONE', #201 ) ;
#110 = CARTESIAN_POINT ( 'NONE',  ( -3.816391647148975600E-014, 6.560922210782624800, -0.8254449390847252700 ) ) ;
#111 = COORDINATED_UNIVERSAL_TIME_OFFSET ( 2, 0, .AHEAD. ) ;
#112 = EDGE_LOOP ( 'NONE', ( #53, #133, #43 ) ) ;
#113 = CYLINDRICAL_SURFACE ( 'NONE', #83, 19.05000000000000100 ) ;
#114 = PERSON_AND_ORGANIZATION ( #189, #232 ) ;
#115 = FACE_OUTER_BOUND ( 'NONE', #131, .T. ) ;
#116 = EDGE_CURVE ( 'NONE', #109, #217, #197, .T. ) ;
#117 = PLANE ( 'NONE',  #121 ) ;
#118 = ADVANCED_BREP_SHAPE_REPRESENTATION ( '110-0411E BK7 pl-cx 38.1 F150', ( #77, #214 ), #188 ) ;
#119 = FACE_OUTER_BOUND ( 'NONE', #212, .T. ) ;
#120 = CARTESIAN_POINT ( 'NONE',  ( 6.268762800354986500, -19.27383488922830400, 2.424886160046393800 ) ) ;
#121 = AXIS2_PLACEMENT_3D ( 'NONE', #195, #51, #136 ) ;
#122 = APPROVAL_PERSON_ORGANIZATION ( #25, #7, #62 ) ;
#123 = CARTESIAN_POINT ( 'NONE',  ( 19.36521736845193000, 6.560922210782622200, 1.596342713130280800 ) ) ;
#124 = DIRECTION ( 'NONE',  ( 0.0000000000000000000, -1.000000000000000000, -3.567096210722132400E-016 ) ) ;
#125 = DIRECTION ( 'NONE',  ( 2.331176954593499900E-017, 1.086877198725570000E-033, 1.000000000000000000 ) ) ;
#126 = VECTOR ( 'NONE', #5, 1000.000000000000000 ) ;
#127 = ORIENTED_EDGE ( 'NONE', *, *, #32, .F. ) ;
#128 = COORDINATED_UNIVERSAL_TIME_OFFSET ( 2, 0, .AHEAD. ) ;
#129 = VECTOR ( 'NONE', #151, 1000.000000000000000 ) ;
#130 = PERSON_AND_ORGANIZATION_ROLE ( 'classification_officer' ) ;
#131 = EDGE_LOOP ( 'NONE', ( #37, #153, #202, #26, #61 ) ) ;
#132 = LOCAL_TIME ( 8, 56, 43.00000000000000000, #111 ) ;
#133 = ORIENTED_EDGE ( 'NONE', *, *, #93, .T. ) ;
#134 = AXIS2_PLACEMENT_3D ( 'NONE', #176, #27, #90 ) ;
#135 = PRODUCT_DEFINITION_SHAPE ( 'NONE', 'NONE',  #148 ) ;
#136 = DIRECTION ( 'NONE',  ( 1.000000000000000000, 0.0000000000000000000, -0.0000000000000000000 ) ) ;
#137 = AXIS2_PLACEMENT_3D ( 'NONE', #19, #200, #72 ) ;
#138 = CARTESIAN_POINT ( 'NONE',  ( -4.599249221566426200E-015, -8.881784197001250400E-016, 5.100000000000000500 ) ) ;
#139 = CARTESIAN_POINT ( 'NONE',  ( -2.131628207280299900E-014, 19.27383488922829000, 2.424886160046380000 ) ) ;
#140 = CALENDAR_DATE ( 2018, 21, 12 ) ;
#141 = APPROVAL ( #42, 'UNSPECIFIED' ) ;
#142 = CARTESIAN_POINT ( 'NONE',  ( -18.56477212009264500, 19.27383488922829000, 4.746571222041598800 ) ) ;
#143 = DATE_TIME_ROLE ( 'creation_date' ) ;
#144 = AXIS2_PLACEMENT_3D ( 'NONE', #182, #34, #222 ) ;
#145 = CARTESIAN_POINT ( 'NONE',  ( -4.662936703425659800E-015, -8.881784197001250400E-016, 2.368011691101350500 ) ) ;
#146 = PERSON_AND_ORGANIZATION ( #189, #232 ) ;
#147 = ORIENTED_EDGE ( 'NONE', *, *, #49, .T. ) ;
#148 = PRODUCT_DEFINITION ( 'UNKNOWN', '', #224, #177 ) ;
#149 = DATE_AND_TIME ( #17, #69 ) ;
#150 = DIRECTION ( 'NONE',  ( 2.331176954593499900E-017, 1.086877198725570000E-033, 1.000000000000000000 ) ) ;
#151 = DIRECTION ( 'NONE',  ( 2.331176954593499900E-017, 1.086877198725570000E-033, 1.000000000000000000 ) ) ;
#152 = AXIS2_PLACEMENT_3D ( 'NONE', #89, #220, #124 ) ;
#153 = ORIENTED_EDGE ( 'NONE', *, *, #22, .T. ) ;
#154 = ORIENTED_EDGE ( 'NONE', *, *, #47, .F. ) ;
#155 = DIRECTION ( 'NONE',  ( 1.000000000000000000, 0.0000000000000000000, -4.553079989440438700E-017 ) ) ;
#156 = CARTESIAN_POINT ( 'NONE',  ( -6.539048983464465600, 6.560922210782624800, -0.8254449390847237200 ) ) ;
#157 = PERSON_AND_ORGANIZATION ( #189, #232 ) ;
#158 = COORDINATED_UNIVERSAL_TIME_OFFSET ( 2, 0, .AHEAD. ) ;
#159 = CARTESIAN_POINT ( 'NONE',  ( 12.48907254149876800, -19.27383488922830400, 3.202789606077216500 ) ) ;
#160 = CARTESIAN_POINT ( 'NONE',  ( 12.48907254149877100, 19.27383488922829400, 3.202789606077201400 ) ) ;
#161 = CARTESIAN_POINT ( 'NONE',  ( 18.56477212009258400, -19.27383488922830100, 4.746571222041622700 ) ) ;
#162 = DIRECTION ( 'NONE',  ( 1.000000000000000000, 0.0000000000000000000, -2.276539994720219300E-017 ) ) ;
#163 = CC_DESIGN_DATE_AND_TIME_ASSIGNMENT ( #86, #143, ( #148 ) ) ;
#164 = UNCERTAINTY_MEASURE_WITH_UNIT (LENGTH_MEASURE( 1.000000000000000100E-005 ), #209, 'distance_accuracy_value', 'NONE');
#165 = APPROVAL_STATUS ( 'not_yet_approved' ) ;
#166 = DIRECTION ( 'NONE',  ( 0.0000000000000000000, 0.0000000000000000000, 1.000000000000000000 ) ) ;
#167 = CIRCLE ( 'NONE', #58, 19.05000000000000100 ) ;
#168 = ADVANCED_FACE ( 'NONE', ( #101 ), #36, .T. ) ;
#169 = ORIENTED_EDGE ( 'NONE', *, *, #116, .T. ) ;
#170 = AXIS2_PLACEMENT_3D ( 'NONE', #56, #15, #219 ) ;
#171 = CIRCLE ( 'NONE', #137, 19.05000000000000100 ) ;
#172 = ADVANCED_FACE ( 'NONE', ( #119 ), #46, .T. ) ;
#173 = PERSON_AND_ORGANIZATION ( #189, #232 ) ;
#174 =( BOUNDED_SURFACE ( )  B_SPLINE_SURFACE ( 3, 3, ( 
 ( #18, #120, #159, #161 ),
 ( #16, #4, #92, #91 ),
 ( #55, #181, #33, #123 ),
 ( #139, #223, #160, #106 ) ),
 .UNSPECIFIED., .F., .F., .F. ) 
 B_SPLINE_SURFACE_WITH_KNOTS ( ( 4, 4 ),
 ( 4, 4 ),
 ( 0.0000000000000000000, 1.000000000000000000 ),
 ( 0.0000000000000000000, 1.000000000000000000 ),
 .UNSPECIFIED. ) 
 GEOMETRIC_REPRESENTATION_ITEM ( )  RATIONAL_B_SPLINE_SURFACE ( (
 ( 1.000000000000000000, 0.9948471428090522900, 0.9948471428090522900, 1.000000000000000000),
 ( 0.9792238687396960200, 0.9741780679861130600, 0.9741780679861130600, 0.9792238687396960200),
 ( 0.9792238687396960200, 0.9741780679861130600, 0.9741780679861130600, 0.9792238687396960200),
 ( 1.000000000000000000, 0.9948471428090522900, 0.9948471428090522900, 1.000000000000000000) ) ) 
 REPRESENTATION_ITEM ( '' )  SURFACE ( )  );
#175 = LINE ( 'NONE', #107, #126 ) ;
#176 = CARTESIAN_POINT ( 'NONE',  ( -4.599249221566426200E-015, -8.881784197001250400E-016, 5.100000000000000500 ) ) ;
#177 = DESIGN_CONTEXT ( 'detailed design', #96, 'design' ) ;
#178 = CARTESIAN_POINT ( 'NONE',  ( -19.05000000000000400, 1.444773732675583000E-015, 2.368011691101360200 ) ) ;
#179 = CARTESIAN_POINT ( 'NONE',  ( -13.02755578856428700, -6.560922210782638200, -0.01400113430184485000 ) ) ;
#180 = LOCAL_TIME ( 8, 56, 43.00000000000000000, #235 ) ;
#181 = CARTESIAN_POINT ( 'NONE',  ( 6.539048983464405200, 6.560922210782623900, -0.8254449390847128400 ) ) ;
#182 = CARTESIAN_POINT ( 'NONE',  ( -4.662936703425659800E-015, -8.881784197001250400E-016, 2.368011691101350500 ) ) ;
#183 = CC_DESIGN_PERSON_AND_ORGANIZATION_ASSIGNMENT ( #157, #57, ( #148 ) ) ;
#184 = PERSON_AND_ORGANIZATION_ROLE ( 'design_supplier' ) ;
#185 = SECURITY_CLASSIFICATION_LEVEL ( 'unclassified' ) ;
#186 = APPLICATION_CONTEXT ( 'configuration controlled 3d designs of mechanical parts and assemblies' ) ;
#187 = ORIENTED_EDGE ( 'NONE', *, *, #116, .F. ) ;
#188 =( GEOMETRIC_REPRESENTATION_CONTEXT ( 3 ) GLOBAL_UNCERTAINTY_ASSIGNED_CONTEXT ( ( #164 ) ) GLOBAL_UNIT_ASSIGNED_CONTEXT ( ( #209, #40, #76 ) ) REPRESENTATION_CONTEXT ( 'NONE', 'WORKASPACE' ) );
#189 = PERSON ( 'UNSPECIFIED', 'UNSPECIFIED', 'UNSPECIFIED', ('UNSPECIFIED'), ('UNSPECIFIED'), ('UNSPECIFIED') ) ;
#190 = APPROVAL_ROLE ( '' ) ;
#191 = VERTEX_POINT ( 'NONE', #59 ) ;
#192 = CC_DESIGN_APPROVAL ( #7, ( #218 ) ) ;
#193 = CALENDAR_DATE ( 2018, 21, 12 ) ;
#194 = CC_DESIGN_APPROVAL ( #141, ( #224 ) ) ;
#195 = CARTESIAN_POINT ( 'NONE',  ( 0.0000000000000000000, 39.06600000000000300, 5.099999999999999600 ) ) ;
#196 = APPROVAL_DATE_TIME ( #97, #141 ) ;
#197 = CIRCLE ( 'NONE', #85, 19.05000000000000100 ) ;
#198 = ORIENTED_EDGE ( 'NONE', *, *, #47, .T. ) ;
#199 = CARTESIAN_POINT ( 'NONE',  ( -4.163336342344337000E-014, -6.560922210782638200, -0.8254449390847050600 ) ) ;
#200 = DIRECTION ( 'NONE',  ( -2.331176954593499900E-017, -1.086877198725570000E-033, -1.000000000000000000 ) ) ;
#201 = CARTESIAN_POINT ( 'NONE',  ( 19.04999999999999700, -8.881784197001250400E-016, 5.099999999999999600 ) ) ;
#202 = ORIENTED_EDGE ( 'NONE', *, *, #32, .T. ) ;
#203 = CARTESIAN_POINT ( 'NONE',  ( -12.48907254149882500, -19.27383488922830400, 3.202789606077205000 ) ) ;
#204 = DIRECTION ( 'NONE',  ( 1.000000000000000000, 0.0000000000000000000, 0.0000000000000000000 ) ) ;
#205 = PERSON_AND_ORGANIZATION_ROLE ( 'creator' ) ;
#206 = ORIENTED_EDGE ( 'NONE', *, *, #207, .T. ) ;
#207 = EDGE_CURVE ( 'NONE', #229, #191, #167, .T. ) ;
#208 = CARTESIAN_POINT ( 'NONE',  ( -12.48907254149882500, 19.27383488922829400, 3.202789606077191200 ) ) ;
#209 =( LENGTH_UNIT ( ) NAMED_UNIT ( * ) SI_UNIT ( .MILLI., .METRE. ) );
#210 = CIRCLE ( 'NONE', #144, 19.05000000000000100 ) ;
#211 = CC_DESIGN_PERSON_AND_ORGANIZATION_ASSIGNMENT ( #173, #205, ( #224 ) ) ;
#212 = EDGE_LOOP ( 'NONE', ( #216, #154, #102, #147, #169 ) ) ;
#213 = CLOSED_SHELL ( 'NONE', ( #99, #23, #168, #172, #24 ) ) ;
#214 = AXIS2_PLACEMENT_3D ( 'NONE', #20, #166, #204 ) ;
#215 = APPROVAL_PERSON_ORGANIZATION ( #114, #230, #190 ) ;
#216 = ORIENTED_EDGE ( 'NONE', *, *, #22, .F. ) ;
#217 = VERTEX_POINT ( 'NONE', #225 ) ;
#218 = SECURITY_CLASSIFICATION ( '', '', #185 ) ;
#219 = DIRECTION ( 'NONE',  ( 1.000000000000000000, 0.0000000000000000000, -2.276539994720219300E-017 ) ) ;
#220 = DIRECTION ( 'NONE',  ( 1.000000000000000000, 0.0000000000000000000, 0.0000000000000000000 ) ) ;
#221 = EDGE_LOOP ( 'NONE', ( #48, #198, #206 ) ) ;
#222 = DIRECTION ( 'NONE',  ( 1.000000000000000000, 0.0000000000000000000, -2.276539994720219300E-017 ) ) ;
#223 = CARTESIAN_POINT ( 'NONE',  ( 6.268762800354990000, 19.27383488922829400, 2.424886160046380000 ) ) ;
#224 = PRODUCT_DEFINITION_FORMATION_WITH_SPECIFIED_SOURCE ( 'ANY', '', #9, .NOT_KNOWN. ) ;
#225 = CARTESIAN_POINT ( 'NONE',  ( -19.05000000000000400, 1.444773732675583000E-015, 5.100000000000001400 ) ) ;
#226 = APPROVAL_STATUS ( 'not_yet_approved' ) ;
#227 = APPROVAL_DATE_TIME ( #29, #7 ) ;
#228 = VERTEX_POINT ( 'NONE', #44 ) ;
#229 = VERTEX_POINT ( 'NONE', #95 ) ;
#230 = APPROVAL ( #226, 'UNSPECIFIED' ) ;
#231 = DIRECTION ( 'NONE',  ( 1.000000000000000000, 0.0000000000000000000, -2.276539994720219300E-017 ) ) ;
#232 = ORGANIZATION ( 'UNSPECIFIED', 'UNSPECIFIED', '' ) ;
#233 = LOCAL_TIME ( 8, 56, 43.00000000000000000, #79 ) ;
#234 = LINE ( 'NONE', #178, #129 ) ;
#235 = COORDINATED_UNIVERSAL_TIME_OFFSET ( 2, 0, .AHEAD. ) ;
ENDSEC;
END-ISO-10303-21;
