ISO-10303-21;
HEADER;
FILE_DESCRIPTION (( 'STEP AP203' ),
    '1' );
FILE_NAME ('110-0409E BK7 pl-cx 38.1 F100.STEP',
    '2018-12-21T06:56:54',
    ( '' ),
    ( '' ),
    'SwSTEP 2.0',
    'SolidWorks 2017',
    '' );
FILE_SCHEMA (( 'CONFIG_CONTROL_DESIGN' ));
ENDSEC;

DATA;
#1 = UNCERTAINTY_MEASURE_WITH_UNIT (LENGTH_MEASURE( 1.000000000000000100E-005 ), #210, 'distance_accuracy_value', 'NONE');
#2 = CARTESIAN_POINT ( 'NONE',  ( -1.646213682098908400E-014, -19.04999999999999700, 3.624851021061200400 ) ) ;
#3 = CYLINDRICAL_SURFACE ( 'NONE', #197, 19.05000000000000100 ) ;
#4 = CARTESIAN_POINT ( 'NONE',  ( 1.421085471520200100E-014, 2.486899575160350000E-014, 51.86999999999999700 ) ) ;
#5 =( GEOMETRIC_REPRESENTATION_CONTEXT ( 3 ) GLOBAL_UNCERTAINTY_ASSIGNED_CONTEXT ( ( #1 ) ) GLOBAL_UNIT_ASSIGNED_CONTEXT ( ( #210, #14, #72 ) ) REPRESENTATION_CONTEXT ( 'NONE', 'WORKASPACE' ) );
#6 = CARTESIAN_POINT ( 'NONE',  ( -19.05000000000000400, 1.444773732675583000E-015, 3.624851021061200800 ) ) ;
#7 = CIRCLE ( 'NONE', #203, 19.05000000000000100 ) ;
#8 = CARTESIAN_POINT ( 'NONE',  ( -1.182282496293938200E-014, 6.744208345167056300, -1.299069378813303900 ) ) ;
#9 = VERTEX_POINT ( 'NONE', #26 ) ;
#10 = CARTESIAN_POINT ( 'NONE',  ( 12.11036331632379300, 19.26752564946968200, 4.860144023718451200 ) ) ;
#11 = APPLICATION_PROTOCOL_DEFINITION ( 'international standard', 'config_control_design', 1994, #52 ) ;
#12 = AXIS2_PLACEMENT_3D ( 'NONE', #185, #192, #101 ) ;
#13 = APPROVAL_PERSON_ORGANIZATION ( #147, #113, #152 ) ;
#14 =( NAMED_UNIT ( * ) PLANE_ANGLE_UNIT ( ) SI_UNIT ( $, .RADIAN. ) );
#15 = EDGE_CURVE ( 'NONE', #180, #231, #133, .T. ) ;
#16 = ORIENTED_EDGE ( 'NONE', *, *, #68, .F. ) ;
#17 = APPROVAL_ROLE ( '' ) ;
#18 = ORIENTED_EDGE ( 'NONE', *, *, #49, .T. ) ;
#19 = APPROVAL_PERSON_ORGANIZATION ( #217, #198, #17 ) ;
#20 = ADVANCED_BREP_SHAPE_REPRESENTATION ( '110-0409E BK7 pl-cx 38.1 F100', ( #207, #40 ), #5 ) ;
#21 = EDGE_LOOP ( 'NONE', ( #149, #25, #155 ) ) ;
#22 = DIRECTION ( 'NONE',  ( 1.000000000000000000, 0.0000000000000000000, -2.276539994720219300E-017 ) ) ;
#23 = PERSON_AND_ORGANIZATION ( #177, #38 ) ;
#24 = DIRECTION ( 'NONE',  ( 1.000000000000000000, -2.801096586449980200E-016, -5.251699512849379800E-016 ) ) ;
#25 = ORIENTED_EDGE ( 'NONE', *, *, #106, .T. ) ;
#26 = CARTESIAN_POINT ( 'NONE',  ( -19.05000000000000400, 1.444773732675583000E-015, 6.500000000000001800 ) ) ;
#27 = SECURITY_CLASSIFICATION ( '', '', #71 ) ;
#28 = CARTESIAN_POINT ( 'NONE',  ( -4.662936703425659800E-015, -8.881784197001250400E-016, 3.624851021061200400 ) ) ;
#29 = DIRECTION ( 'NONE',  ( 1.000000000000000000, 0.0000000000000000000, -4.553079989440438700E-017 ) ) ;
#30 = VERTEX_POINT ( 'NONE', #2 ) ;
#31 = CARTESIAN_POINT ( 'NONE',  ( 19.04999999999999700, -8.881784197001250400E-016, 6.500000000000000000 ) ) ;
#32 = CARTESIAN_POINT ( 'NONE',  ( -12.11036331632379200, 19.26752564946969000, 4.860144023718461900 ) ) ;
#33 = COORDINATED_UNIVERSAL_TIME_OFFSET ( 2, 0, .AHEAD. ) ;
#34 = CARTESIAN_POINT ( 'NONE',  ( -4.662936703425659800E-015, -8.881784197001250400E-016, 3.624851021061200800 ) ) ;
#35 = DIRECTION ( 'NONE',  ( 2.331176954593499900E-017, 1.086877198725570000E-033, 1.000000000000000000 ) ) ;
#36 = CC_DESIGN_PERSON_AND_ORGANIZATION_ASSIGNMENT ( #70, #51, ( #233 ) ) ;
#37 = DATE_AND_TIME ( #80, #229 ) ;
#38 = ORGANIZATION ( 'UNSPECIFIED', 'UNSPECIFIED', '' ) ;
#39 = CIRCLE ( 'NONE', #148, 19.05000000000000100 ) ;
#40 = AXIS2_PLACEMENT_3D ( 'NONE', #108, #174, #193 ) ;
#41 = DIRECTION ( 'NONE',  ( -2.801096586449978200E-016, -1.000000000000000000, 2.675494082863785900E-016 ) ) ;
#42 = EDGE_LOOP ( 'NONE', ( #159, #91, #58, #226, #16 ) ) ;
#43 = CARTESIAN_POINT ( 'NONE',  ( -5.683621767198769400E-015, 19.26752564946967900, 3.711310697372287100 ) ) ;
#44 = CC_DESIGN_PERSON_AND_ORGANIZATION_ASSIGNMENT ( #144, #110, ( #158 ) ) ;
#45 = CARTESIAN_POINT ( 'NONE',  ( -1.647766183241214700E-014, -19.26752564946965400, 3.711310697372301300 ) ) ;
#46 = APPROVAL_DATE_TIME ( #120, #56 ) ;
#47 = DIRECTION ( 'NONE',  ( -2.331176954593499900E-017, -1.086877198725570000E-033, -1.000000000000000000 ) ) ;
#48 = CYLINDRICAL_SURFACE ( 'NONE', #115, 19.05000000000000100 ) ;
#49 = EDGE_CURVE ( 'NONE', #30, #231, #191, .T. ) ;
#50 = ORIENTED_EDGE ( 'NONE', *, *, #117, .F. ) ;
#51 = PERSON_AND_ORGANIZATION_ROLE ( 'creator' ) ;
#52 = APPLICATION_CONTEXT ( 'configuration controlled 3d designs of mechanical parts and assemblies' ) ;
#53 = ORIENTED_EDGE ( 'NONE', *, *, #228, .F. ) ;
#54 = COORDINATED_UNIVERSAL_TIME_OFFSET ( 2, 0, .AHEAD. ) ;
#55 = PRODUCT_RELATED_PRODUCT_CATEGORY ( 'detail', '', ( #158 ) ) ;
#56 = APPROVAL ( #175, 'UNSPECIFIED' ) ;
#57 = DATE_AND_TIME ( #232, #222 ) ;
#58 = ORIENTED_EDGE ( 'NONE', *, *, #75, .T. ) ;
#59 = CARTESIAN_POINT ( 'NONE',  ( -13.37031295270576700, -6.744208345167024300, -0.03071262497075094600 ) ) ;
#60 = CARTESIAN_POINT ( 'NONE',  ( -13.37031295270576200, 6.744208345167062500, -0.03071262497075875200 ) ) ;
#61 = DIRECTION ( 'NONE',  ( 2.331176954593499900E-017, 1.086877198725570000E-033, 1.000000000000000000 ) ) ;
#62 = CARTESIAN_POINT ( 'NONE',  ( -4.662936703425659800E-015, -8.881784197001250400E-016, 3.624851021061200800 ) ) ;
#63 = ORIENTED_EDGE ( 'NONE', *, *, #75, .F. ) ;
#64 = CARTESIAN_POINT ( 'NONE',  ( -4.595911893018408800E-015, -8.881784197001250400E-016, 6.500000000000000900 ) ) ;
#65 =( BOUNDED_SURFACE ( )  B_SPLINE_SURFACE ( 3, 3, ( 
 ( #182, #216, #234, #128 ),
 ( #143, #59, #183, #98 ),
 ( #163, #60, #184, #104 ),
 ( #172, #32, #84, #168 ) ),
 .UNSPECIFIED., .F., .F., .F. ) 
 B_SPLINE_SURFACE_WITH_KNOTS ( ( 4, 4 ),
 ( 4, 4 ),
 ( 0.0000000000000000000, 1.000000000000000000 ),
 ( 0.0000000000000000000, 1.000000000000000000 ),
 .UNSPECIFIED. ) 
 GEOMETRIC_REPRESENTATION_ITEM ( )  RATIONAL_B_SPLINE_SURFACE ( (
 ( 1.000000000000000000, 0.9881081983062985900, 0.9881081983062985900, 1.000000000000000000),
 ( 0.9522998432315109600, 0.9409752823428588800, 0.9409752823428588800, 0.9522998432315109600),
 ( 0.9522998432315109600, 0.9409752823428588800, 0.9409752823428588800, 0.9522998432315109600),
 ( 1.000000000000000000, 0.9881081983062985900, 0.9881081983062985900, 1.000000000000000000) ) ) 
 REPRESENTATION_ITEM ( '' )  SURFACE ( )  );
#66 = CARTESIAN_POINT ( 'NONE',  ( 6.745316955045792500, 6.744208345167052700, -1.299069378813307200 ) ) ;
#67 = CC_DESIGN_APPROVAL ( #198, ( #27 ) ) ;
#68 = EDGE_CURVE ( 'NONE', #231, #109, #204, .T. ) ;
#69 = DIRECTION ( 'NONE',  ( 1.000000000000000000, 0.0000000000000000000, -4.553079989440438700E-017 ) ) ;
#70 = PERSON_AND_ORGANIZATION ( #177, #38 ) ;
#71 = SECURITY_CLASSIFICATION_LEVEL ( 'unclassified' ) ;
#72 =( NAMED_UNIT ( * ) SI_UNIT ( $, .STERADIAN. ) SOLID_ANGLE_UNIT ( ) );
#73 = ADVANCED_FACE ( 'NONE', ( #199 ), #65, .T. ) ;
#74 = APPROVAL_STATUS ( 'not_yet_approved' ) ;
#75 = EDGE_CURVE ( 'NONE', #9, #138, #39, .T. ) ;
#76 = EDGE_LOOP ( 'NONE', ( #50, #63 ) ) ;
#77 = PERSON_AND_ORGANIZATION ( #177, #38 ) ;
#78 = CLOSED_SHELL ( 'NONE', ( #94, #137, #73, #124, #90 ) ) ;
#79 = CARTESIAN_POINT ( 'NONE',  ( -4.662936703425659800E-015, -8.881784197001250400E-016, 3.624851021061200800 ) ) ;
#80 = CALENDAR_DATE ( 2018, 21, 12 ) ;
#81 = CARTESIAN_POINT ( 'NONE',  ( 6.109672922265613000, 19.26752564946968600, 3.711310697372284900 ) ) ;
#82 = CARTESIAN_POINT ( 'NONE',  ( -4.595911893018408800E-015, -8.881784197001250400E-016, 6.500000000000000900 ) ) ;
#83 = DIRECTION ( 'NONE',  ( 2.331176954593499900E-017, 1.086877198725570000E-033, 1.000000000000000000 ) ) ;
#84 = CARTESIAN_POINT ( 'NONE',  ( -6.109672922265620100, 19.26752564946968600, 3.711310697372290700 ) ) ;
#85 = DIRECTION ( 'NONE',  ( 1.000000000000000000, 0.0000000000000000000, -2.276539994720219300E-017 ) ) ;
#86 = DATE_AND_TIME ( #130, #171 ) ;
#87 = MECHANICAL_CONTEXT ( 'NONE', #176, 'mechanical' ) ;
#88 = EDGE_CURVE ( 'NONE', #109, #138, #105, .T. ) ;
#89 = DATE_TIME_ROLE ( 'creation_date' ) ;
#90 = ADVANCED_FACE ( 'NONE', ( #112 ), #134, .T. ) ;
#91 = ORIENTED_EDGE ( 'NONE', *, *, #156, .T. ) ;
#92 = COORDINATED_UNIVERSAL_TIME_OFFSET ( 2, 0, .AHEAD. ) ;
#93 = CC_DESIGN_DATE_AND_TIME_ASSIGNMENT ( #57, #89, ( #233 ) ) ;
#94 = ADVANCED_FACE ( 'NONE', ( #142 ), #167, .T. ) ;
#95 = ORIENTED_EDGE ( 'NONE', *, *, #88, .T. ) ;
#96 = AXIS2_PLACEMENT_3D ( 'NONE', #62, #116, #22 ) ;
#97 = DIRECTION ( 'NONE',  ( 1.000000000000000000, 8.881784197001252300E-016, -2.276539994720219300E-017 ) ) ;
#98 = CARTESIAN_POINT ( 'NONE',  ( -3.122502256758252800E-014, -6.744208345167027800, -1.299069378813296800 ) ) ;
#99 = DIRECTION ( 'NONE',  ( -2.331176954593499900E-017, -1.086877198725570000E-033, -1.000000000000000000 ) ) ;
#100 = VECTOR ( 'NONE', #35, 1000.000000000000000 ) ;
#101 = DIRECTION ( 'NONE',  ( 1.000000000000000000, 0.0000000000000000000, -2.276539994720219300E-017 ) ) ;
#102 = CARTESIAN_POINT ( 'NONE',  ( 0.0000000000000000000, 39.06600000000000300, 6.500000000000000900 ) ) ;
#103 = COORDINATED_UNIVERSAL_TIME_OFFSET ( 2, 0, .AHEAD. ) ;
#104 = CARTESIAN_POINT ( 'NONE',  ( -2.428612866367529600E-014, 6.744208345167057100, -1.299069378813303900 ) ) ;
#105 = LINE ( 'NONE', #161, #122 ) ;
#106 = EDGE_CURVE ( 'NONE', #30, #180, #202, .T. ) ;
#107 = CARTESIAN_POINT ( 'NONE',  ( -1.560106075773035800E-014, -6.744208345167029600, -1.299069378813294800 ) ) ;
#108 = CARTESIAN_POINT ( 'NONE',  ( 0.0000000000000000000, 0.0000000000000000000, 0.0000000000000000000 ) ) ;
#109 = VERTEX_POINT ( 'NONE', #165 ) ;
#110 = PERSON_AND_ORGANIZATION_ROLE ( 'design_owner' ) ;
#111 = APPROVAL_DATE_TIME ( #86, #113 ) ;
#112 = FACE_OUTER_BOUND ( 'NONE', #76, .T. ) ;
#113 = APPROVAL ( #74, 'UNSPECIFIED' ) ;
#114 = ORIENTED_EDGE ( 'NONE', *, *, #156, .F. ) ;
#115 = AXIS2_PLACEMENT_3D ( 'NONE', #146, #209, #221 ) ;
#116 = DIRECTION ( 'NONE',  ( -2.331176954593499900E-017, -1.086877198725570000E-033, -1.000000000000000000 ) ) ;
#117 = EDGE_CURVE ( 'NONE', #138, #9, #7, .T. ) ;
#118 = ORIENTED_EDGE ( 'NONE', *, *, #117, .T. ) ;
#119 = CARTESIAN_POINT ( 'NONE',  ( 6.109672922265602300, -19.26752564946965800, 3.711310697372297800 ) ) ;
#120 = DATE_AND_TIME ( #162, #150 ) ;
#121 = DIRECTION ( 'NONE',  ( -2.331176954593499900E-017, -1.086877198725570000E-033, -1.000000000000000000 ) ) ;
#122 = VECTOR ( 'NONE', #61, 1000.000000000000000 ) ;
#123 = APPROVAL_ROLE ( '' ) ;
#124 = ADVANCED_FACE ( 'NONE', ( #189 ), #3, .T. ) ;
#125 = CC_DESIGN_APPROVAL ( #113, ( #233 ) ) ;
#126 = PERSON_AND_ORGANIZATION ( #177, #38 ) ;
#127 = AXIS2_PLACEMENT_3D ( 'NONE', #79, #99, #97 ) ;
#128 = CARTESIAN_POINT ( 'NONE',  ( -3.469446951953614200E-014, -19.26752564946965400, 3.711310697372299600 ) ) ;
#129 = COORDINATED_UNIVERSAL_TIME_OFFSET ( 2, 0, .AHEAD. ) ;
#130 = CALENDAR_DATE ( 2018, 21, 12 ) ;
#131 = CARTESIAN_POINT ( 'NONE',  ( 13.37031295270575100, 6.744208345167050900, -0.03071262497077002800 ) ) ;
#132 = CC_DESIGN_PERSON_AND_ORGANIZATION_ASSIGNMENT ( #23, #227, ( #27 ) ) ;
#133 = CIRCLE ( 'NONE', #96, 19.05000000000000100 ) ;
#134 = PLANE ( 'NONE',  #218 ) ;
#135 = PRODUCT_DEFINITION_FORMATION_WITH_SPECIFIED_SOURCE ( 'ANY', '', #158, .NOT_KNOWN. ) ;
#136 = DIRECTION ( 'NONE',  ( 1.000000000000000000, 0.0000000000000000000, -2.276539994720219300E-017 ) ) ;
#137 = ADVANCED_FACE ( 'NONE', ( #205 ), #48, .T. ) ;
#138 = VERTEX_POINT ( 'NONE', #31 ) ;
#139 = APPROVAL_STATUS ( 'not_yet_approved' ) ;
#140 = DESIGN_CONTEXT ( 'detailed design', #52, 'design' ) ;
#141 = CALENDAR_DATE ( 2018, 21, 12 ) ;
#142 = FACE_OUTER_BOUND ( 'NONE', #164, .T. ) ;
#143 = CARTESIAN_POINT ( 'NONE',  ( -19.63863857710264700, -6.744208345167020700, 2.460751741733640900 ) ) ;
#144 = PERSON_AND_ORGANIZATION ( #177, #38 ) ;
#145 = CARTESIAN_POINT ( 'NONE',  ( 19.63863857710263600, -6.744208345167034900, 2.460751741733631500 ) ) ;
#146 = CARTESIAN_POINT ( 'NONE',  ( -4.662936703425659800E-015, -8.881784197001250400E-016, 3.624851021061200400 ) ) ;
#147 = PERSON_AND_ORGANIZATION ( #177, #38 ) ;
#148 = AXIS2_PLACEMENT_3D ( 'NONE', #64, #170, #69 ) ;
#149 = ORIENTED_EDGE ( 'NONE', *, *, #49, .F. ) ;
#150 = LOCAL_TIME ( 8, 56, 54.00000000000000000, #103 ) ;
#151 = CARTESIAN_POINT ( 'NONE',  ( -5.789958826614651700E-015, 19.05000000000001800, 3.624851021061203500 ) ) ;
#152 = APPROVAL_ROLE ( '' ) ;
#153 = CC_DESIGN_DATE_AND_TIME_ASSIGNMENT ( #37, #214, ( #27 ) ) ;
#154 = PERSON_AND_ORGANIZATION_ROLE ( 'design_supplier' ) ;
#155 = ORIENTED_EDGE ( 'NONE', *, *, #15, .T. ) ;
#156 = EDGE_CURVE ( 'NONE', #180, #9, #224, .T. ) ;
#157 = CIRCLE ( 'NONE', #230, 19.05000000000000100 ) ;
#158 = PRODUCT ( '110-0409E BK7 pl-cx 38.1 F100', '110-0409E BK7 pl-cx 38.1 F100', '', ( #87 ) ) ;
#159 = ORIENTED_EDGE ( 'NONE', *, *, #15, .F. ) ;
#160 = ORIENTED_EDGE ( 'NONE', *, *, #68, .T. ) ;
#161 = CARTESIAN_POINT ( 'NONE',  ( 19.04999999999999700, -8.881784197001250400E-016, 3.624851021061199900 ) ) ;
#162 = CALENDAR_DATE ( 2018, 21, 12 ) ;
#163 = CARTESIAN_POINT ( 'NONE',  ( -19.63863857710264300, 6.744208345167062500, 2.460751741733632400 ) ) ;
#164 = EDGE_LOOP ( 'NONE', ( #235, #18, #160 ) ) ;
#165 = CARTESIAN_POINT ( 'NONE',  ( 19.04999999999999700, -8.881784197001250400E-016, 3.624851021061200400 ) ) ;
#166 = CC_DESIGN_PERSON_AND_ORGANIZATION_ASSIGNMENT ( #126, #154, ( #135 ) ) ;
#167 =( BOUNDED_SURFACE ( )  B_SPLINE_SURFACE ( 3, 3, ( 
 ( #45, #119, #190, #208 ),
 ( #107, #188, #169, #145 ),
 ( #8, #66, #131, #223 ),
 ( #43, #81, #10, #213 ) ),
 .UNSPECIFIED., .F., .F., .F. ) 
 B_SPLINE_SURFACE_WITH_KNOTS ( ( 4, 4 ),
 ( 4, 4 ),
 ( 0.0000000000000000000, 1.000000000000000000 ),
 ( 0.0000000000000000000, 1.000000000000000000 ),
 .UNSPECIFIED. ) 
 GEOMETRIC_REPRESENTATION_ITEM ( )  RATIONAL_B_SPLINE_SURFACE ( (
 ( 1.000000000000000000, 0.9881081983062985900, 0.9881081983062985900, 1.000000000000000000),
 ( 0.9522998432315109600, 0.9409752823428588800, 0.9409752823428588800, 0.9522998432315109600),
 ( 0.9522998432315109600, 0.9409752823428588800, 0.9409752823428588800, 0.9522998432315109600),
 ( 1.000000000000000000, 0.9881081983062985900, 0.9881081983062985900, 1.000000000000000000) ) ) 
 REPRESENTATION_ITEM ( '' )  SURFACE ( )  );
#168 = CARTESIAN_POINT ( 'NONE',  ( -1.387778780781445700E-014, 19.26752564946967900, 3.711310697372286200 ) ) ;
#169 = CARTESIAN_POINT ( 'NONE',  ( 13.37031295270574400, -6.744208345167034900, -0.03071262497076092000 ) ) ;
#170 = DIRECTION ( 'NONE',  ( -2.331176954593499900E-017, -1.086877198725570000E-033, -1.000000000000000000 ) ) ;
#171 = LOCAL_TIME ( 8, 56, 54.00000000000000000, #54 ) ;
#172 = CARTESIAN_POINT ( 'NONE',  ( -17.78799412160020300, 19.26752564946968600, 7.116825582122725500 ) ) ;
#173 = APPLICATION_PROTOCOL_DEFINITION ( 'international standard', 'config_control_design', 1994, #176 ) ;
#174 = DIRECTION ( 'NONE',  ( 0.0000000000000000000, 0.0000000000000000000, 1.000000000000000000 ) ) ;
#175 = APPROVAL_STATUS ( 'not_yet_approved' ) ;
#176 = APPLICATION_CONTEXT ( 'configuration controlled 3d designs of mechanical parts and assemblies' ) ;
#177 = PERSON ( 'UNSPECIFIED', 'UNSPECIFIED', 'UNSPECIFIED', ('UNSPECIFIED'), ('UNSPECIFIED'), ('UNSPECIFIED') ) ;
#178 = APPROVAL_PERSON_ORGANIZATION ( #196, #56, #123 ) ;
#179 = SHAPE_DEFINITION_REPRESENTATION ( #201, #20 ) ;
#180 = VERTEX_POINT ( 'NONE', #195 ) ;
#181 = APPROVAL_DATE_TIME ( #220, #198 ) ;
#182 = CARTESIAN_POINT ( 'NONE',  ( -17.78799412160021700, -19.26752564946964700, 7.116825582122738900 ) ) ;
#183 = CARTESIAN_POINT ( 'NONE',  ( -6.745316955045823600, -6.744208345167026100, -1.299069378813291200 ) ) ;
#184 = CARTESIAN_POINT ( 'NONE',  ( -6.745316955045816500, 6.744208345167058000, -1.299069378813298300 ) ) ;
#185 = CARTESIAN_POINT ( 'NONE',  ( -4.662936703425659800E-015, -8.881784197001250400E-016, 3.624851021061200800 ) ) ;
#186 = EDGE_LOOP ( 'NONE', ( #114, #206, #53, #95, #118 ) ) ;
#187 = DIRECTION ( 'NONE',  ( 1.000000000000000000, 0.0000000000000000000, -0.0000000000000000000 ) ) ;
#188 = CARTESIAN_POINT ( 'NONE',  ( 6.745316955045787200, -6.744208345167033200, -1.299069378813298300 ) ) ;
#189 = FACE_OUTER_BOUND ( 'NONE', #186, .T. ) ;
#190 = CARTESIAN_POINT ( 'NONE',  ( 12.11036331632378400, -19.26752564946966100, 4.860144023718466300 ) ) ;
#191 = CIRCLE ( 'NONE', #200, 51.86999999999999700 ) ;
#192 = DIRECTION ( 'NONE',  ( -2.331176954593499900E-017, -1.086877198725570000E-033, -1.000000000000000000 ) ) ;
#193 = DIRECTION ( 'NONE',  ( 1.000000000000000000, 0.0000000000000000000, 0.0000000000000000000 ) ) ;
#194 = LOCAL_TIME ( 8, 56, 54.00000000000000000, #33 ) ;
#195 = CARTESIAN_POINT ( 'NONE',  ( -19.05000000000000400, 1.444773732675583000E-015, 3.624851021061201300 ) ) ;
#196 = PERSON_AND_ORGANIZATION ( #177, #38 ) ;
#197 = AXIS2_PLACEMENT_3D ( 'NONE', #28, #83, #85 ) ;
#198 = APPROVAL ( #139, 'UNSPECIFIED' ) ;
#199 = FACE_OUTER_BOUND ( 'NONE', #21, .T. ) ;
#200 = AXIS2_PLACEMENT_3D ( 'NONE', #4, #24, #41 ) ;
#201 = PRODUCT_DEFINITION_SHAPE ( 'NONE', 'NONE',  #233 ) ;
#202 = CIRCLE ( 'NONE', #12, 19.05000000000000100 ) ;
#203 = AXIS2_PLACEMENT_3D ( 'NONE', #82, #121, #29 ) ;
#204 = CIRCLE ( 'NONE', #127, 19.05000000000000100 ) ;
#205 = FACE_OUTER_BOUND ( 'NONE', #42, .T. ) ;
#206 = ORIENTED_EDGE ( 'NONE', *, *, #106, .F. ) ;
#207 = MANIFOLD_SOLID_BREP ( 'Imported1', #78 ) ;
#208 = CARTESIAN_POINT ( 'NONE',  ( 17.78799412160020300, -19.26752564946965400, 7.116825582122730900 ) ) ;
#209 = DIRECTION ( 'NONE',  ( 2.331176954593499900E-017, 1.086877198725570000E-033, 1.000000000000000000 ) ) ;
#210 =( LENGTH_UNIT ( ) NAMED_UNIT ( * ) SI_UNIT ( .MILLI., .METRE. ) );
#211 = CC_DESIGN_APPROVAL ( #56, ( #135 ) ) ;
#212 = DIRECTION ( 'NONE',  ( 0.0000000000000000000, 0.0000000000000000000, 1.000000000000000000 ) ) ;
#213 = CARTESIAN_POINT ( 'NONE',  ( 17.78799412160021700, 19.26752564946967500, 7.116825582122716700 ) ) ;
#214 = DATE_TIME_ROLE ( 'classification_date' ) ;
#215 = CC_DESIGN_SECURITY_CLASSIFICATION ( #27, ( #135 ) ) ;
#216 = CARTESIAN_POINT ( 'NONE',  ( -12.11036331632380600, -19.26752564946965400, 4.860144023718473400 ) ) ;
#217 = PERSON_AND_ORGANIZATION ( #177, #38 ) ;
#218 = AXIS2_PLACEMENT_3D ( 'NONE', #102, #212, #187 ) ;
#219 = CC_DESIGN_PERSON_AND_ORGANIZATION_ASSIGNMENT ( #77, #225, ( #135 ) ) ;
#220 = DATE_AND_TIME ( #141, #194 ) ;
#221 = DIRECTION ( 'NONE',  ( 1.000000000000000000, 0.0000000000000000000, -2.276539994720219300E-017 ) ) ;
#222 = LOCAL_TIME ( 8, 56, 54.00000000000000000, #92 ) ;
#223 = CARTESIAN_POINT ( 'NONE',  ( 19.63863857710264700, 6.744208345167050900, 2.460751741733622700 ) ) ;
#224 = LINE ( 'NONE', #6, #100 ) ;
#225 = PERSON_AND_ORGANIZATION_ROLE ( 'creator' ) ;
#226 = ORIENTED_EDGE ( 'NONE', *, *, #88, .F. ) ;
#227 = PERSON_AND_ORGANIZATION_ROLE ( 'classification_officer' ) ;
#228 = EDGE_CURVE ( 'NONE', #109, #30, #157, .T. ) ;
#229 = LOCAL_TIME ( 8, 56, 54.00000000000000000, #129 ) ;
#230 = AXIS2_PLACEMENT_3D ( 'NONE', #34, #47, #136 ) ;
#231 = VERTEX_POINT ( 'NONE', #151 ) ;
#232 = CALENDAR_DATE ( 2018, 21, 12 ) ;
#233 = PRODUCT_DEFINITION ( 'UNKNOWN', '', #135, #140 ) ;
#234 = CARTESIAN_POINT ( 'NONE',  ( -6.109672922265643200, -19.26752564946965800, 3.711310697372305300 ) ) ;
#235 = ORIENTED_EDGE ( 'NONE', *, *, #228, .T. ) ;
ENDSEC;
END-ISO-10303-21;
