ISO-10303-21;
HEADER;
FILE_DESCRIPTION (( 'STEP AP203' ),
    '1' );
FILE_NAME ('110-0407E BK7 pl-cx 38.1 F75.STEP',
    '2018-12-21T06:57:06',
    ( '' ),
    ( '' ),
    'SwSTEP 2.0',
    'SolidWorks 2017',
    '' );
FILE_SCHEMA (( 'CONFIG_CONTROL_DESIGN' ));
ENDSEC;

DATA;
#1 = CC_DESIGN_APPROVAL ( #164, ( #117 ) ) ;
#2 = VERTEX_POINT ( 'NONE', #153 ) ;
#3 = CALENDAR_DATE ( 2018, 21, 12 ) ;
#4 = VERTEX_POINT ( 'NONE', #45 ) ;
#5 = SECURITY_CLASSIFICATION ( '', '', #55 ) ;
#6 = CC_DESIGN_PERSON_AND_ORGANIZATION_ASSIGNMENT ( #165, #34, ( #125 ) ) ;
#7 = DATE_AND_TIME ( #64, #133 ) ;
#8 = DIRECTION ( 'NONE',  ( 1.000000000000000000, 0.0000000000000000000, -0.0000000000000000000 ) ) ;
#9 =( LENGTH_UNIT ( ) NAMED_UNIT ( * ) SI_UNIT ( .MILLI., .METRE. ) );
#10 = PERSON_AND_ORGANIZATION ( #42, #222 ) ;
#11 = ORIENTED_EDGE ( 'NONE', *, *, #97, .F. ) ;
#12 = APPLICATION_PROTOCOL_DEFINITION ( 'international standard', 'config_control_design', 1994, #73 ) ;
#13 = CARTESIAN_POINT ( 'NONE',  ( 1.065814103640150000E-014, -19.25792501266442300, 5.101444939071823700 ) ) ;
#14 = DIRECTION ( 'NONE',  ( 1.000000000000000000, 8.881784197001252300E-016, 0.0000000000000000000 ) ) ;
#15 = AXIS2_PLACEMENT_3D ( 'NONE', #209, #26, #8 ) ;
#16 = ORIENTED_EDGE ( 'NONE', *, *, #21, .F. ) ;
#17 = CC_DESIGN_PERSON_AND_ORGANIZATION_ASSIGNMENT ( #27, #180, ( #5 ) ) ;
#18 = CC_DESIGN_PERSON_AND_ORGANIZATION_ASSIGNMENT ( #137, #160, ( #125 ) ) ;
#19 = ORIENTED_EDGE ( 'NONE', *, *, #113, .T. ) ;
#20 = ADVANCED_FACE ( 'NONE', ( #208 ), #96, .T. ) ;
#21 = EDGE_CURVE ( 'NONE', #68, #38, #132, .T. ) ;
#22 = CARTESIAN_POINT ( 'NONE',  ( 6.938893903907228400E-015, -19.25792501266442300, 5.101444939071814000 ) ) ;
#23 = ORIENTED_EDGE ( 'NONE', *, *, #101, .T. ) ;
#24 = CARTESIAN_POINT ( 'NONE',  ( -5.865228958117369600, -19.25792501266442600, 5.101444939071814800 ) ) ;
#25 = EDGE_CURVE ( 'NONE', #2, #38, #201, .T. ) ;
#26 = DIRECTION ( 'NONE',  ( 0.0000000000000000000, 0.0000000000000000000, 1.000000000000000000 ) ) ;
#27 = PERSON_AND_ORGANIZATION ( #42, #222 ) ;
#28 = ORIENTED_EDGE ( 'NONE', *, *, #101, .F. ) ;
#29 = APPLICATION_CONTEXT ( 'configuration controlled 3d designs of mechanical parts and assemblies' ) ;
#30 = PERSON_AND_ORGANIZATION_ROLE ( 'design_owner' ) ;
#31 = CC_DESIGN_DATE_AND_TIME_ASSIGNMENT ( #122, #195, ( #5 ) ) ;
#32 = CARTESIAN_POINT ( 'NONE',  ( 13.91466338118415700, -7.034306209205784200, -0.06249731531689835900 ) ) ;
#33 = CARTESIAN_POINT ( 'NONE',  ( 19.04999999999999700, -8.881784197001250400E-016, 7.299999999999999800 ) ) ;
#34 = PERSON_AND_ORGANIZATION_ROLE ( 'creator' ) ;
#35 = DIRECTION ( 'NONE',  ( -0.0000000000000000000, -0.0000000000000000000, -1.000000000000000000 ) ) ;
#36 = APPROVAL ( #61, 'UNSPECIFIED' ) ;
#37 = CARTESIAN_POINT ( 'NONE',  ( 1.065814103640149800E-014, -7.034306209205781500, -1.863395240517111500 ) ) ;
#38 = VERTEX_POINT ( 'NONE', #54 ) ;
#39 = AXIS2_PLACEMENT_3D ( 'NONE', #235, #94, #14 ) ;
#40 = PERSON_AND_ORGANIZATION ( #42, #222 ) ;
#41 = ORIENTED_EDGE ( 'NONE', *, *, #113, .F. ) ;
#42 = PERSON ( 'UNSPECIFIED', 'UNSPECIFIED', 'UNSPECIFIED', ('UNSPECIFIED'), ('UNSPECIFIED'), ('UNSPECIFIED') ) ;
#43 = DATE_AND_TIME ( #3, #197 ) ;
#44 = ADVANCED_FACE ( 'NONE', ( #123 ), #86, .T. ) ;
#45 = CARTESIAN_POINT ( 'NONE',  ( 1.065814103640150000E-014, 19.05000000000000400, 4.983816547258740600 ) ) ;
#46 = PERSON_AND_ORGANIZATION ( #42, #222 ) ;
#47 = AXIS2_PLACEMENT_3D ( 'NONE', #215, #146, #161 ) ;
#48 = CARTESIAN_POINT ( 'NONE',  ( -5.865228958117377500, 19.25792501266443300, 5.101444939071809500 ) ) ;
#49 = CARTESIAN_POINT ( 'NONE',  ( -20.07157390466424100, -7.034306209205781500, 3.420621305831540200 ) ) ;
#50 = COORDINATED_UNIVERSAL_TIME_OFFSET ( 2, 0, .AHEAD. ) ;
#51 = APPROVAL_STATUS ( 'not_yet_approved' ) ;
#52 = VECTOR ( 'NONE', #176, 1000.000000000000000 ) ;
#53 = CARTESIAN_POINT ( 'NONE',  ( -4.662936703425659800E-015, -8.881784197001250400E-016, 7.299999999999999800 ) ) ;
#54 = CARTESIAN_POINT ( 'NONE',  ( -19.05000000000000400, 1.444773732675583000E-015, 7.299999999999999800 ) ) ;
#55 = SECURITY_CLASSIFICATION_LEVEL ( 'unclassified' ) ;
#56 = DIRECTION ( 'NONE',  ( 1.000000000000000000, 0.0000000000000000000, 0.0000000000000000000 ) ) ;
#57 = CALENDAR_DATE ( 2018, 21, 12 ) ;
#58 = DIRECTION ( 'NONE',  ( 0.0000000000000000000, 0.0000000000000000000, 1.000000000000000000 ) ) ;
#59 = AXIS2_PLACEMENT_3D ( 'NONE', #226, #159, #205 ) ;
#60 = ORIENTED_EDGE ( 'NONE', *, *, #97, .T. ) ;
#61 = APPROVAL_STATUS ( 'not_yet_approved' ) ;
#62 = CC_DESIGN_DATE_AND_TIME_ASSIGNMENT ( #187, #144, ( #117 ) ) ;
#63 = CC_DESIGN_APPROVAL ( #36, ( #5 ) ) ;
#64 = CALENDAR_DATE ( 2018, 21, 12 ) ;
#65 = CARTESIAN_POINT ( 'NONE',  ( -16.64214160213013500, -19.25792501266442300, 9.482633579784147700 ) ) ;
#66 = EDGE_CURVE ( 'NONE', #220, #4, #168, .T. ) ;
#67 = APPROVAL_DATE_TIME ( #81, #164 ) ;
#68 = VERTEX_POINT ( 'NONE', #33 ) ;
#69 = CARTESIAN_POINT ( 'NONE',  ( 20.07157390466423100, 7.034306209205783300, 3.420621305831533100 ) ) ;
#70 = DIRECTION ( 'NONE',  ( 1.000000000000000000, 0.0000000000000000000, 0.0000000000000000000 ) ) ;
#71 = ADVANCED_BREP_SHAPE_REPRESENTATION ( '110-0407E BK7 pl-cx 38.1 F75', ( #136, #140 ), #207 ) ;
#72 = AXIS2_PLACEMENT_3D ( 'NONE', #92, #35, #56 ) ;
#73 = APPLICATION_CONTEXT ( 'configuration controlled 3d designs of mechanical parts and assemblies' ) ;
#74 = DIRECTION ( 'NONE',  ( 1.000000000000000000, 0.0000000000000000000, 0.0000000000000000000 ) ) ;
#75 = FACE_OUTER_BOUND ( 'NONE', #138, .T. ) ;
#76 = COORDINATED_UNIVERSAL_TIME_OFFSET ( 2, 0, .AHEAD. ) ;
#77 = CIRCLE ( 'NONE', #39, 19.05000000000000100 ) ;
#78 = CC_DESIGN_PERSON_AND_ORGANIZATION_ASSIGNMENT ( #191, #30, ( #98 ) ) ;
#79 = ORIENTED_EDGE ( 'NONE', *, *, #198, .T. ) ;
#80 = ADVANCED_FACE ( 'NONE', ( #75 ), #199, .T. ) ;
#81 = DATE_AND_TIME ( #142, #178 ) ;
#82 = CARTESIAN_POINT ( 'NONE',  ( 3.469446951953614200E-015, 19.25792501266443000, 5.101444939071809500 ) ) ;
#83 = CARTESIAN_POINT ( 'NONE',  ( -7.073871819812029400, 7.034306209205786000, -1.863395240517121200 ) ) ;
#84 =( BOUNDED_SURFACE ( )  B_SPLINE_SURFACE ( 3, 3, ( 
 ( #13, #147, #145, #196 ),
 ( #37, #216, #32, #227 ),
 ( #163, #124, #155, #69 ),
 ( #93, #182, #193, #128 ) ),
 .UNSPECIFIED., .F., .F., .T. ) 
 B_SPLINE_SURFACE_WITH_KNOTS ( ( 4, 4 ),
 ( 4, 4 ),
 ( 0.0000000000000000000, 1.000000000000000000 ),
 ( 0.0000000000000000000, 1.000000000000000000 ),
 .UNSPECIFIED. ) 
 GEOMETRIC_REPRESENTATION_ITEM ( )  RATIONAL_B_SPLINE_SURFACE ( (
 ( 1.000000000000000000, 0.9780336931572991600, 0.9780336931572991600, 1.000000000000000000),
 ( 0.9125716377194202900, 0.8925258091093294400, 0.8925258091093294400, 0.9125716377194202900),
 ( 0.9125716377194202900, 0.8925258091093294400, 0.8925258091093294400, 0.9125716377194202900),
 ( 1.000000000000000000, 0.9780336931572991600, 0.9780336931572991600, 1.000000000000000000) ) ) 
 REPRESENTATION_ITEM ( '' )  SURFACE ( )  );
#85 = EDGE_LOOP ( 'NONE', ( #232, #41, #28, #166, #174 ) ) ;
#86 = PLANE ( 'NONE',  #15 ) ;
#87 = AXIS2_PLACEMENT_3D ( 'NONE', #53, #110, #74 ) ;
#88 = DIRECTION ( 'NONE',  ( 0.0000000000000000000, 0.0000000000000000000, 1.000000000000000000 ) ) ;
#89 = APPROVAL_ROLE ( '' ) ;
#90 = ORIENTED_EDGE ( 'NONE', *, *, #66, .T. ) ;
#91 = DIRECTION ( 'NONE',  ( -0.0000000000000000000, -0.0000000000000000000, -1.000000000000000000 ) ) ;
#92 = CARTESIAN_POINT ( 'NONE',  ( -4.662936703425659800E-015, -8.881784197001250400E-016, 4.983816547258739700 ) ) ;
#93 = CARTESIAN_POINT ( 'NONE',  ( 1.065814103640150000E-014, 19.25792501266443000, 5.101444939071816600 ) ) ;
#94 = DIRECTION ( 'NONE',  ( -0.0000000000000000000, -0.0000000000000000000, -1.000000000000000000 ) ) ;
#95 = CARTESIAN_POINT ( 'NONE',  ( 1.065814103640150000E-014, -19.04999999999999400, 4.983816547258740600 ) ) ;
#96 =( BOUNDED_SURFACE ( )  B_SPLINE_SURFACE ( 3, 3, ( 
 ( #65, #150, #24, #22 ),
 ( #49, #119, #221, #152 ),
 ( #173, #175, #83, #172 ),
 ( #203, #104, #48, #82 ) ),
 .UNSPECIFIED., .F., .F., .F. ) 
 B_SPLINE_SURFACE_WITH_KNOTS ( ( 4, 4 ),
 ( 4, 4 ),
 ( 0.0000000000000000000, 1.000000000000000000 ),
 ( 0.0000000000000000000, 1.000000000000000000 ),
 .UNSPECIFIED. ) 
 GEOMETRIC_REPRESENTATION_ITEM ( )  RATIONAL_B_SPLINE_SURFACE ( (
 ( 1.000000000000000000, 0.9780336931572991600, 0.9780336931572991600, 1.000000000000000000),
 ( 0.9125716377194202900, 0.8925258091093294400, 0.8925258091093294400, 0.9125716377194202900),
 ( 0.9125716377194202900, 0.8925258091093294400, 0.8925258091093294400, 0.9125716377194202900),
 ( 1.000000000000000000, 0.9780336931572991600, 0.9780336931572991600, 1.000000000000000000) ) ) 
 REPRESENTATION_ITEM ( '' )  SURFACE ( )  );
#97 = EDGE_CURVE ( 'NONE', #4, #179, #77, .T. ) ;
#98 = PRODUCT ( '110-0407E BK7 pl-cx 38.1 F75', '110-0407E BK7 pl-cx 38.1 F75', '', ( #228 ) ) ;
#99 = APPROVAL_PERSON_ORGANIZATION ( #10, #36, #130 ) ;
#100 = ORIENTED_EDGE ( 'NONE', *, *, #198, .F. ) ;
#101 = EDGE_CURVE ( 'NONE', #179, #220, #170, .T. ) ;
#102 = LOCAL_TIME ( 8, 57, 6.000000000000000000, #131 ) ;
#103 = LINE ( 'NONE', #234, #52 ) ;
#104 = CARTESIAN_POINT ( 'NONE',  ( -11.53720178773970600, 19.25792501266443300, 6.594641158985576900 ) ) ;
#105 = AXIS2_PLACEMENT_3D ( 'NONE', #109, #229, #127 ) ;
#106 = DESIGN_CONTEXT ( 'detailed design', #29, 'design' ) ;
#107 =( NAMED_UNIT ( * ) PLANE_ANGLE_UNIT ( ) SI_UNIT ( $, .RADIAN. ) );
#108 = CIRCLE ( 'NONE', #87, 19.05000000000000100 ) ;
#109 = CARTESIAN_POINT ( 'NONE',  ( 1.065814103640150000E-014, 1.065814103640150000E-014, 38.89999999999999900 ) ) ;
#110 = DIRECTION ( 'NONE',  ( -0.0000000000000000000, -0.0000000000000000000, -1.000000000000000000 ) ) ;
#111 = CARTESIAN_POINT ( 'NONE',  ( 0.0000000000000000000, 0.0000000000000000000, 0.0000000000000000000 ) ) ;
#112 = UNCERTAINTY_MEASURE_WITH_UNIT (LENGTH_MEASURE( 1.000000000000000100E-005 ), #9, 'distance_accuracy_value', 'NONE');
#113 = EDGE_CURVE ( 'NONE', #220, #2, #156, .T. ) ;
#114 = APPROVAL_PERSON_ORGANIZATION ( #184, #164, #89 ) ;
#115 = CIRCLE ( 'NONE', #135, 19.05000000000000100 ) ;
#116 = CC_DESIGN_PERSON_AND_ORGANIZATION_ASSIGNMENT ( #40, #212, ( #117 ) ) ;
#117 = PRODUCT_DEFINITION ( 'UNKNOWN', '', #125, #106 ) ;
#118 = VECTOR ( 'NONE', #88, 1000.000000000000000 ) ;
#119 = CARTESIAN_POINT ( 'NONE',  ( -13.91466338118416400, -7.034306209205781500, -0.06249731531690009400 ) ) ;
#120 = CLOSED_SHELL ( 'NONE', ( #188, #80, #20, #151, #44 ) ) ;
#121 = EDGE_CURVE ( 'NONE', #2, #4, #115, .T. ) ;
#122 = DATE_AND_TIME ( #169, #139 ) ;
#123 = FACE_OUTER_BOUND ( 'NONE', #204, .T. ) ;
#124 = CARTESIAN_POINT ( 'NONE',  ( 7.073871819812031200, 7.034306209205785100, -1.863395240517113500 ) ) ;
#125 = PRODUCT_DEFINITION_FORMATION_WITH_SPECIFIED_SOURCE ( 'ANY', '', #98, .NOT_KNOWN. ) ;
#126 = DIRECTION ( 'NONE',  ( 1.000000000000000000, 0.0000000000000000000, 0.0000000000000000000 ) ) ;
#127 = DIRECTION ( 'NONE',  ( 0.0000000000000000000, -1.000000000000000000, -3.567554706379037700E-016 ) ) ;
#128 = CARTESIAN_POINT ( 'NONE',  ( 16.64214160213013800, 19.25792501266442600, 9.482633579784138800 ) ) ;
#129 = FACE_OUTER_BOUND ( 'NONE', #85, .T. ) ;
#130 = APPROVAL_ROLE ( '' ) ;
#131 = COORDINATED_UNIVERSAL_TIME_OFFSET ( 2, 0, .AHEAD. ) ;
#132 = CIRCLE ( 'NONE', #59, 19.05000000000000100 ) ;
#133 = LOCAL_TIME ( 8, 57, 6.000000000000000000, #76 ) ;
#134 = SHAPE_DEFINITION_REPRESENTATION ( #210, #71 ) ;
#135 = AXIS2_PLACEMENT_3D ( 'NONE', #213, #91, #70 ) ;
#136 = MANIFOLD_SOLID_BREP ( 'Imported1', #120 ) ;
#137 = PERSON_AND_ORGANIZATION ( #42, #222 ) ;
#138 = EDGE_LOOP ( 'NONE', ( #154, #218, #79, #148, #11 ) ) ;
#139 = LOCAL_TIME ( 8, 57, 6.000000000000000000, #219 ) ;
#140 = AXIS2_PLACEMENT_3D ( 'NONE', #111, #233, #126 ) ;
#141 =( NAMED_UNIT ( * ) SI_UNIT ( $, .STERADIAN. ) SOLID_ANGLE_UNIT ( ) );
#142 = CALENDAR_DATE ( 2018, 21, 12 ) ;
#143 = EDGE_LOOP ( 'NONE', ( #23, #90, #60 ) ) ;
#144 = DATE_TIME_ROLE ( 'creation_date' ) ;
#145 = CARTESIAN_POINT ( 'NONE',  ( 11.53720178773969500, -19.25792501266443000, 6.594641158985584000 ) ) ;
#146 = DIRECTION ( 'NONE',  ( -0.0000000000000000000, -0.0000000000000000000, -1.000000000000000000 ) ) ;
#147 = CARTESIAN_POINT ( 'NONE',  ( 5.865228958117380200, -19.25792501266442600, 5.101444939071824600 ) ) ;
#148 = ORIENTED_EDGE ( 'NONE', *, *, #183, .F. ) ;
#149 = APPROVAL_PERSON_ORGANIZATION ( #46, #202, #194 ) ;
#150 = CARTESIAN_POINT ( 'NONE',  ( -11.53720178773969900, -19.25792501266442600, 6.594641158985582200 ) ) ;
#151 = ADVANCED_FACE ( 'NONE', ( #129 ), #192, .T. ) ;
#152 = CARTESIAN_POINT ( 'NONE',  ( 3.469446951953614200E-015, -7.034306209205779800, -1.863395240517119700 ) ) ;
#153 = CARTESIAN_POINT ( 'NONE',  ( -19.05000000000000400, 1.444773732675583000E-015, 4.983816547258739700 ) ) ;
#154 = ORIENTED_EDGE ( 'NONE', *, *, #121, .F. ) ;
#155 = CARTESIAN_POINT ( 'NONE',  ( 13.91466338118416100, 7.034306209205785100, -0.06249731531689965700 ) ) ;
#156 = CIRCLE ( 'NONE', #72, 19.05000000000000100 ) ;
#157 = APPLICATION_PROTOCOL_DEFINITION ( 'international standard', 'config_control_design', 1994, #29 ) ;
#158 = APPROVAL_STATUS ( 'not_yet_approved' ) ;
#159 = DIRECTION ( 'NONE',  ( -0.0000000000000000000, -0.0000000000000000000, -1.000000000000000000 ) ) ;
#160 = PERSON_AND_ORGANIZATION_ROLE ( 'design_supplier' ) ;
#161 = DIRECTION ( 'NONE',  ( 1.000000000000000000, 0.0000000000000000000, 0.0000000000000000000 ) ) ;
#162 = EDGE_LOOP ( 'NONE', ( #185, #19, #223 ) ) ;
#163 = CARTESIAN_POINT ( 'NONE',  ( 1.065814103640149800E-014, 7.034306209205785100, -1.863395240517113500 ) ) ;
#164 = APPROVAL ( #51, 'UNSPECIFIED' ) ;
#165 = PERSON_AND_ORGANIZATION ( #42, #222 ) ;
#166 = ORIENTED_EDGE ( 'NONE', *, *, #183, .T. ) ;
#167 = PRODUCT_RELATED_PRODUCT_CATEGORY ( 'detail', '', ( #98 ) ) ;
#168 = CIRCLE ( 'NONE', #105, 38.89999999999999900 ) ;
#169 = CALENDAR_DATE ( 2018, 21, 12 ) ;
#170 = CIRCLE ( 'NONE', #47, 19.05000000000000100 ) ;
#171 = AXIS2_PLACEMENT_3D ( 'NONE', #217, #58, #190 ) ;
#172 = CARTESIAN_POINT ( 'NONE',  ( 0.0000000000000000000, 7.034306209205787800, -1.863395240517123000 ) ) ;
#173 = CARTESIAN_POINT ( 'NONE',  ( -20.07157390466424500, 7.034306209205785100, 3.420621305831540200 ) ) ;
#174 = ORIENTED_EDGE ( 'NONE', *, *, #21, .T. ) ;
#175 = CARTESIAN_POINT ( 'NONE',  ( -13.91466338118416600, 7.034306209205786000, -0.06249731531690139900 ) ) ;
#176 = DIRECTION ( 'NONE',  ( 0.0000000000000000000, 0.0000000000000000000, 1.000000000000000000 ) ) ;
#177 = DIRECTION ( 'NONE',  ( 0.0000000000000000000, 0.0000000000000000000, 1.000000000000000000 ) ) ;
#178 = LOCAL_TIME ( 8, 57, 6.000000000000000000, #50 ) ;
#179 = VERTEX_POINT ( 'NONE', #181 ) ;
#180 = PERSON_AND_ORGANIZATION_ROLE ( 'classification_officer' ) ;
#181 = CARTESIAN_POINT ( 'NONE',  ( 19.04999999999999700, -8.881784197001250400E-016, 4.983816547258739700 ) ) ;
#182 = CARTESIAN_POINT ( 'NONE',  ( 5.865228958117383800, 19.25792501266443300, 5.101444939071816600 ) ) ;
#183 = EDGE_CURVE ( 'NONE', #179, #68, #103, .T. ) ;
#184 = PERSON_AND_ORGANIZATION ( #42, #222 ) ;
#185 = ORIENTED_EDGE ( 'NONE', *, *, #66, .F. ) ;
#186 = APPROVAL_DATE_TIME ( #43, #36 ) ;
#187 = DATE_AND_TIME ( #57, #102 ) ;
#188 = ADVANCED_FACE ( 'NONE', ( #214 ), #84, .T. ) ;
#189 = CARTESIAN_POINT ( 'NONE',  ( -4.662936703425659800E-015, -8.881784197001250400E-016, 4.983816547258739700 ) ) ;
#190 = DIRECTION ( 'NONE',  ( 1.000000000000000000, 0.0000000000000000000, 0.0000000000000000000 ) ) ;
#191 = PERSON_AND_ORGANIZATION ( #42, #222 ) ;
#192 = CYLINDRICAL_SURFACE ( 'NONE', #171, 19.05000000000000100 ) ;
#193 = CARTESIAN_POINT ( 'NONE',  ( 11.53720178773970200, 19.25792501266443000, 6.594641158985576900 ) ) ;
#194 = APPROVAL_ROLE ( '' ) ;
#195 = DATE_TIME_ROLE ( 'classification_date' ) ;
#196 = CARTESIAN_POINT ( 'NONE',  ( 16.64214160213012800, -19.25792501266442600, 9.482633579784144100 ) ) ;
#197 = LOCAL_TIME ( 8, 57, 6.000000000000000000, #230 ) ;
#198 = EDGE_CURVE ( 'NONE', #38, #68, #108, .T. ) ;
#199 = CYLINDRICAL_SURFACE ( 'NONE', #225, 19.05000000000000100 ) ;
#200 = CC_DESIGN_SECURITY_CLASSIFICATION ( #5, ( #125 ) ) ;
#201 = LINE ( 'NONE', #224, #118 ) ;
#202 = APPROVAL ( #158, 'UNSPECIFIED' ) ;
#203 = CARTESIAN_POINT ( 'NONE',  ( -16.64214160213014200, 19.25792501266443000, 9.482633579784145900 ) ) ;
#204 = EDGE_LOOP ( 'NONE', ( #16, #100 ) ) ;
#205 = DIRECTION ( 'NONE',  ( 1.000000000000000000, 0.0000000000000000000, 0.0000000000000000000 ) ) ;
#206 = APPROVAL_DATE_TIME ( #7, #202 ) ;
#207 =( GEOMETRIC_REPRESENTATION_CONTEXT ( 3 ) GLOBAL_UNCERTAINTY_ASSIGNED_CONTEXT ( ( #112 ) ) GLOBAL_UNIT_ASSIGNED_CONTEXT ( ( #9, #107, #141 ) ) REPRESENTATION_CONTEXT ( 'NONE', 'WORKASPACE' ) );
#208 = FACE_OUTER_BOUND ( 'NONE', #162, .T. ) ;
#209 = CARTESIAN_POINT ( 'NONE',  ( 0.0000000000000000000, 39.06600000000000300, 7.299999999999999800 ) ) ;
#210 = PRODUCT_DEFINITION_SHAPE ( 'NONE', 'NONE',  #117 ) ;
#211 = DIRECTION ( 'NONE',  ( 1.000000000000000000, 0.0000000000000000000, 0.0000000000000000000 ) ) ;
#212 = PERSON_AND_ORGANIZATION_ROLE ( 'creator' ) ;
#213 = CARTESIAN_POINT ( 'NONE',  ( -4.662936703425659800E-015, -8.881784197001250400E-016, 4.983816547258739700 ) ) ;
#214 = FACE_OUTER_BOUND ( 'NONE', #143, .T. ) ;
#215 = CARTESIAN_POINT ( 'NONE',  ( -4.662936703425659800E-015, -8.881784197001250400E-016, 4.983816547258739700 ) ) ;
#216 = CARTESIAN_POINT ( 'NONE',  ( 7.073871819812030300, -7.034306209205783300, -1.863395240517111700 ) ) ;
#217 = CARTESIAN_POINT ( 'NONE',  ( -4.662936703425659800E-015, -8.881784197001250400E-016, 4.983816547258739700 ) ) ;
#218 = ORIENTED_EDGE ( 'NONE', *, *, #25, .T. ) ;
#219 = COORDINATED_UNIVERSAL_TIME_OFFSET ( 2, 0, .AHEAD. ) ;
#220 = VERTEX_POINT ( 'NONE', #95 ) ;
#221 = CARTESIAN_POINT ( 'NONE',  ( -7.073871819812025800, -7.034306209205780600, -1.863395240517118400 ) ) ;
#222 = ORGANIZATION ( 'UNSPECIFIED', 'UNSPECIFIED', '' ) ;
#223 = ORIENTED_EDGE ( 'NONE', *, *, #121, .T. ) ;
#224 = CARTESIAN_POINT ( 'NONE',  ( -19.05000000000000400, 1.444773732675583000E-015, 4.983816547258739700 ) ) ;
#225 = AXIS2_PLACEMENT_3D ( 'NONE', #189, #177, #211 ) ;
#226 = CARTESIAN_POINT ( 'NONE',  ( -4.662936703425659800E-015, -8.881784197001250400E-016, 7.299999999999999800 ) ) ;
#227 = CARTESIAN_POINT ( 'NONE',  ( 20.07157390466422300, -7.034306209205783300, 3.420621305831534000 ) ) ;
#228 = MECHANICAL_CONTEXT ( 'NONE', #73, 'mechanical' ) ;
#229 = DIRECTION ( 'NONE',  ( 1.000000000000000000, 0.0000000000000000000, 0.0000000000000000000 ) ) ;
#230 = COORDINATED_UNIVERSAL_TIME_OFFSET ( 2, 0, .AHEAD. ) ;
#231 = CC_DESIGN_APPROVAL ( #202, ( #125 ) ) ;
#232 = ORIENTED_EDGE ( 'NONE', *, *, #25, .F. ) ;
#233 = DIRECTION ( 'NONE',  ( 0.0000000000000000000, 0.0000000000000000000, 1.000000000000000000 ) ) ;
#234 = CARTESIAN_POINT ( 'NONE',  ( 19.04999999999999700, -8.881784197001250400E-016, 4.983816547258739700 ) ) ;
#235 = CARTESIAN_POINT ( 'NONE',  ( -4.662936703425659800E-015, -8.881784197001250400E-016, 4.983816547258739700 ) ) ;
ENDSEC;
END-ISO-10303-21;
