ISO-10303-21;
HEADER;
FILE_DESCRIPTION (( 'STEP AP203' ),
    '1' );
FILE_NAME ('110-0406E BK7 pl-cx 38.1 F63.5.STEP',
    '2018-12-21T06:57:17',
    ( '' ),
    ( '' ),
    'SwSTEP 2.0',
    'SolidWorks 2017',
    '' );
FILE_SCHEMA (( 'CONFIG_CONTROL_DESIGN' ));
ENDSEC;

DATA;
#1 = CARTESIAN_POINT ( 'NONE',  ( -15.53975360477299000, 19.24833650491548900, 11.19002989205542600 ) ) ;
#2 = ADVANCED_BREP_SHAPE_REPRESENTATION ( '110-0406E BK7 pl-cx 38.1 F63.5', ( #74, #193 ), #54 ) ;
#3 = CARTESIAN_POINT ( 'NONE',  ( 5.618257581530840200, 19.24833650491548900, 6.209022805113584700 ) ) ;
#4 = CARTESIAN_POINT ( 'NONE',  ( -5.618257581530854400, -19.24833650491548600, 6.209022805113574100 ) ) ;
#5 = CARTESIAN_POINT ( 'NONE',  ( -3.552713678800500100E-015, -19.24833650491548600, 6.209022805113575000 ) ) ;
#6 = APPROVAL_DATE_TIME ( #100, #120 ) ;
#7 = CALENDAR_DATE ( 2018, 21, 12 ) ;
#8 = CARTESIAN_POINT ( 'NONE',  ( 0.0000000000000000000, 39.06600000000000300, 8.000000000000000000 ) ) ;
#9 = PERSON ( 'UNSPECIFIED', 'UNSPECIFIED', 'UNSPECIFIED', ('UNSPECIFIED'), ('UNSPECIFIED'), ('UNSPECIFIED') ) ;
#10 = CC_DESIGN_SECURITY_CLASSIFICATION ( #112, ( #132 ) ) ;
#11 = SECURITY_CLASSIFICATION_LEVEL ( 'unclassified' ) ;
#12 = PERSON_AND_ORGANIZATION ( #9, #125 ) ;
#13 = CC_DESIGN_APPROVAL ( #159, ( #132 ) ) ;
#14 = DIRECTION ( 'NONE',  ( 1.000000000000000000, 0.0000000000000000000, 0.0000000000000000000 ) ) ;
#15 = CARTESIAN_POINT ( 'NONE',  ( -4.662936703425659800E-015, -8.881784197001250400E-016, 8.000000000000000000 ) ) ;
#16 = EDGE_CURVE ( 'NONE', #69, #22, #190, .T. ) ;
#17 = FACE_OUTER_BOUND ( 'NONE', #164, .T. ) ;
#18 = LOCAL_TIME ( 8, 57, 17.00000000000000000, #61 ) ;
#19 = CC_DESIGN_PERSON_AND_ORGANIZATION_ASSIGNMENT ( #12, #160, ( #148 ) ) ;
#20 = EDGE_CURVE ( 'NONE', #213, #122, #233, .T. ) ;
#21 = CARTESIAN_POINT ( 'NONE',  ( 14.48740713989038800, -7.338262299156573600, -0.1020463573910245100 ) ) ;
#22 = VERTEX_POINT ( 'NONE', #216 ) ;
#23 = CC_DESIGN_DATE_AND_TIME_ASSIGNMENT ( #200, #49, ( #148 ) ) ;
#24 = CARTESIAN_POINT ( 'NONE',  ( -14.48740713989039400, -7.338262299156573600, -0.1020463573910245100 ) ) ;
#25 = LOCAL_TIME ( 8, 57, 17.00000000000000000, #78 ) ;
#26 = CARTESIAN_POINT ( 'NONE',  ( -3.552713678800499700E-015, 7.338262299156581600, -2.367136399227682800 ) ) ;
#27 = CARTESIAN_POINT ( 'NONE',  ( -15.53975360477299500, -19.24833650491548600, 11.19002989205541700 ) ) ;
#28 = CARTESIAN_POINT ( 'NONE',  ( -1.040834085586084300E-014, 19.24833650491548900, 6.209022805113584700 ) ) ;
#29 =( NAMED_UNIT ( * ) PLANE_ANGLE_UNIT ( ) SI_UNIT ( $, .RADIAN. ) );
#30 = CARTESIAN_POINT ( 'NONE',  ( -10.96839306055746600, 19.24833650491548900, 7.923918897735376300 ) ) ;
#31 = COORDINATED_UNIVERSAL_TIME_OFFSET ( 2, 0, .AHEAD. ) ;
#32 = CC_DESIGN_PERSON_AND_ORGANIZATION_ASSIGNMENT ( #72, #129, ( #132 ) ) ;
#33 = DIRECTION ( 'NONE',  ( 0.0000000000000000000, -1.000000000000000000, 0.0000000000000000000 ) ) ;
#34 = LINE ( 'NONE', #147, #97 ) ;
#35 = DIRECTION ( 'NONE',  ( -0.0000000000000000000, -0.0000000000000000000, -1.000000000000000000 ) ) ;
#36 = AXIS2_PLACEMENT_3D ( 'NONE', #8, #143, #86 ) ;
#37 = DESIGN_CONTEXT ( 'detailed design', #158, 'design' ) ;
#38 = DIRECTION ( 'NONE',  ( 1.000000000000000000, 0.0000000000000000000, 0.0000000000000000000 ) ) ;
#39 = AXIS2_PLACEMENT_3D ( 'NONE', #185, #137, #33 ) ;
#40 = FACE_OUTER_BOUND ( 'NONE', #58, .T. ) ;
#41 = CARTESIAN_POINT ( 'NONE',  ( 14.48740713989038700, 7.338262299156583300, -0.1020463573910218900 ) ) ;
#42 = DIRECTION ( 'NONE',  ( 1.000000000000000000, 0.0000000000000000000, 0.0000000000000000000 ) ) ;
#43 = DIRECTION ( 'NONE',  ( -0.0000000000000000000, -0.0000000000000000000, -1.000000000000000000 ) ) ;
#44 = CLOSED_SHELL ( 'NONE', ( #182, #73, #231, #77, #229 ) ) ;
#45 = CC_DESIGN_APPROVAL ( #99, ( #112 ) ) ;
#46 = DIRECTION ( 'NONE',  ( 0.0000000000000000000, 0.0000000000000000000, 1.000000000000000000 ) ) ;
#47 = CARTESIAN_POINT ( 'NONE',  ( -4.662936703425659800E-015, -8.881784197001250400E-016, 6.067316844051470400 ) ) ;
#48 = APPLICATION_PROTOCOL_DEFINITION ( 'international standard', 'config_control_design', 1994, #158 ) ;
#49 = DATE_TIME_ROLE ( 'creation_date' ) ;
#50 = ORIENTED_EDGE ( 'NONE', *, *, #105, .T. ) ;
#51 = DIRECTION ( 'NONE',  ( 1.000000000000000000, 0.0000000000000000000, 0.0000000000000000000 ) ) ;
#52 = VERTEX_POINT ( 'NONE', #96 ) ;
#53 = FACE_OUTER_BOUND ( 'NONE', #180, .T. ) ;
#54 =( GEOMETRIC_REPRESENTATION_CONTEXT ( 3 ) GLOBAL_UNCERTAINTY_ASSIGNED_CONTEXT ( ( #67 ) ) GLOBAL_UNIT_ASSIGNED_CONTEXT ( ( #146, #29, #109 ) ) REPRESENTATION_CONTEXT ( 'NONE', 'WORKASPACE' ) );
#55 = CALENDAR_DATE ( 2018, 21, 12 ) ;
#56 = DIRECTION ( 'NONE',  ( 0.0000000000000000000, 0.0000000000000000000, 1.000000000000000000 ) ) ;
#57 = DIRECTION ( 'NONE',  ( 1.000000000000000000, 0.0000000000000000000, 0.0000000000000000000 ) ) ;
#58 = EDGE_LOOP ( 'NONE', ( #135, #169, #168 ) ) ;
#59 = PRODUCT_DEFINITION_SHAPE ( 'NONE', 'NONE',  #148 ) ;
#60 = CARTESIAN_POINT ( 'NONE',  ( 19.04999999999999700, -8.881784197001250400E-016, 8.000000000000000000 ) ) ;
#61 = COORDINATED_UNIVERSAL_TIME_OFFSET ( 2, 0, .AHEAD. ) ;
#62 = AXIS2_PLACEMENT_3D ( 'NONE', #145, #218, #189 ) ;
#63 = CARTESIAN_POINT ( 'NONE',  ( -3.552713678800500100E-015, 19.24833650491548900, 6.209022805113584700 ) ) ;
#64 = CIRCLE ( 'NONE', #62, 19.05000000000000100 ) ;
#65 = PERSON_AND_ORGANIZATION ( #9, #125 ) ;
#66 = CARTESIAN_POINT ( 'NONE',  ( 15.53975360477298300, 19.24833650491548900, 11.19002989205542600 ) ) ;
#67 = UNCERTAINTY_MEASURE_WITH_UNIT (LENGTH_MEASURE( 1.000000000000000100E-005 ), #146, 'distance_accuracy_value', 'NONE');
#68 = CARTESIAN_POINT ( 'NONE',  ( -1.040834085586084300E-014, -19.24833650491548600, 6.209022805113573200 ) ) ;
#69 = VERTEX_POINT ( 'NONE', #60 ) ;
#70 = APPROVAL_ROLE ( '' ) ;
#71 = PERSON_AND_ORGANIZATION_ROLE ( 'classification_officer' ) ;
#72 = PERSON_AND_ORGANIZATION ( #9, #125 ) ;
#73 = ADVANCED_FACE ( 'NONE', ( #130 ), #92, .T. ) ;
#74 = MANIFOLD_SOLID_BREP ( 'Imported1', #44 ) ;
#75 = DIRECTION ( 'NONE',  ( 0.0000000000000000000, 0.0000000000000000000, 1.000000000000000000 ) ) ;
#76 =( BOUNDED_SURFACE ( )  B_SPLINE_SURFACE ( 3, 3, ( 
 ( #27, #104, #4, #68 ),
 ( #209, #24, #224, #102 ),
 ( #154, #106, #171, #205 ),
 ( #1, #30, #211, #28 ) ),
 .UNSPECIFIED., .F., .F., .F. ) 
 B_SPLINE_SURFACE_WITH_KNOTS ( ( 4, 4 ),
 ( 4, 4 ),
 ( 0.0000000000000000000, 1.000000000000000000 ),
 ( 0.0000000000000000000, 1.000000000000000000 ),
 .UNSPECIFIED. ) 
 GEOMETRIC_REPRESENTATION_ITEM ( )  RATIONAL_B_SPLINE_SURFACE ( (
 ( 1.000000000000000000, 0.9681844298268274000, 0.9681844298268274000, 1.000000000000000000),
 ( 0.8743367171602189900, 0.8465191959804266900, 0.8465191959804266900, 0.8743367171602189900),
 ( 0.8743367171602189900, 0.8465191959804266900, 0.8465191959804266900, 0.8743367171602189900),
 ( 1.000000000000000000, 0.9681844298268274000, 0.9681844298268274000, 1.000000000000000000) ) ) 
 REPRESENTATION_ITEM ( '' )  SURFACE ( )  );
#77 = ADVANCED_FACE ( 'NONE', ( #53 ), #186, .T. ) ;
#78 = COORDINATED_UNIVERSAL_TIME_OFFSET ( 2, 0, .AHEAD. ) ;
#79 = CARTESIAN_POINT ( 'NONE',  ( 15.53975360477298800, -19.24833650491548600, 11.19002989205541900 ) ) ;
#80 = AXIS2_PLACEMENT_3D ( 'NONE', #183, #43, #192 ) ;
#81 = CIRCLE ( 'NONE', #199, 19.05000000000000100 ) ;
#82 = DIRECTION ( 'NONE',  ( -0.0000000000000000000, -0.0000000000000000000, -1.000000000000000000 ) ) ;
#83 = EDGE_CURVE ( 'NONE', #122, #89, #195, .T. ) ;
#84 = CARTESIAN_POINT ( 'NONE',  ( -3.552713678800499700E-015, -7.338262299156572700, -2.367136399227684200 ) ) ;
#85 = PERSON_AND_ORGANIZATION ( #9, #125 ) ;
#86 = DIRECTION ( 'NONE',  ( 1.000000000000000000, 0.0000000000000000000, -0.0000000000000000000 ) ) ;
#87 = CC_DESIGN_DATE_AND_TIME_ASSIGNMENT ( #107, #178, ( #112 ) ) ;
#88 = CARTESIAN_POINT ( 'NONE',  ( 7.420775728133548900, 7.338262299156583300, -2.367136399227683300 ) ) ;
#89 = VERTEX_POINT ( 'NONE', #136 ) ;
#90 = APPROVAL_ROLE ( '' ) ;
#91 = PERSON_AND_ORGANIZATION_ROLE ( 'creator' ) ;
#92 = CYLINDRICAL_SURFACE ( 'NONE', #235, 19.05000000000000100 ) ;
#93 = AXIS2_PLACEMENT_3D ( 'NONE', #118, #113, #57 ) ;
#94 = DATE_AND_TIME ( #55, #165 ) ;
#95 = DIRECTION ( 'NONE',  ( 0.0000000000000000000, 0.0000000000000000000, 1.000000000000000000 ) ) ;
#96 = CARTESIAN_POINT ( 'NONE',  ( -19.05000000000000400, 1.444773732675583000E-015, 6.067316844051470400 ) ) ;
#97 = VECTOR ( 'NONE', #56, 1000.000000000000000 ) ;
#98 = CARTESIAN_POINT ( 'NONE',  ( 10.96839306055745300, 19.24833650491548900, 7.923918897735374500 ) ) ;
#99 = APPROVAL ( #172, 'UNSPECIFIED' ) ;
#100 = DATE_AND_TIME ( #110, #217 ) ;
#101 = EDGE_CURVE ( 'NONE', #22, #69, #201, .T. ) ;
#102 = CARTESIAN_POINT ( 'NONE',  ( -1.040834085586084300E-014, -7.338262299156572700, -2.367136399227687700 ) ) ;
#103 = EDGE_LOOP ( 'NONE', ( #131, #191 ) ) ;
#104 = CARTESIAN_POINT ( 'NONE',  ( -10.96839306055746900, -19.24833650491548600, 7.923918897735363000 ) ) ;
#105 = EDGE_CURVE ( 'NONE', #52, #22, #34, .T. ) ;
#106 = CARTESIAN_POINT ( 'NONE',  ( -14.48740713989039400, 7.338262299156583300, -0.1020463573910201800 ) ) ;
#107 = DATE_AND_TIME ( #7, #18 ) ;
#108 = CC_DESIGN_PERSON_AND_ORGANIZATION_ASSIGNMENT ( #65, #194, ( #174 ) ) ;
#109 =( NAMED_UNIT ( * ) SI_UNIT ( $, .STERADIAN. ) SOLID_ANGLE_UNIT ( ) );
#110 = CALENDAR_DATE ( 2018, 21, 12 ) ;
#111 = PERSON_AND_ORGANIZATION ( #9, #125 ) ;
#112 = SECURITY_CLASSIFICATION ( '', '', #11 ) ;
#113 = DIRECTION ( 'NONE',  ( -0.0000000000000000000, -0.0000000000000000000, -1.000000000000000000 ) ) ;
#114 = APPROVAL_DATE_TIME ( #94, #99 ) ;
#115 =( BOUNDED_SURFACE ( )  B_SPLINE_SURFACE ( 3, 3, ( 
 ( #5, #152, #123, #79 ),
 ( #84, #223, #21, #188 ),
 ( #26, #88, #41, #121 ),
 ( #63, #3, #98, #66 ) ),
 .UNSPECIFIED., .F., .F., .F. ) 
 B_SPLINE_SURFACE_WITH_KNOTS ( ( 4, 4 ),
 ( 4, 4 ),
 ( 0.0000000000000000000, 1.000000000000000000 ),
 ( 0.0000000000000000000, 1.000000000000000000 ),
 .UNSPECIFIED. ) 
 GEOMETRIC_REPRESENTATION_ITEM ( )  RATIONAL_B_SPLINE_SURFACE ( (
 ( 1.000000000000000000, 0.9681844298268274000, 0.9681844298268274000, 1.000000000000000000),
 ( 0.8743367171602189900, 0.8465191959804266900, 0.8465191959804266900, 0.8743367171602189900),
 ( 0.8743367171602189900, 0.8465191959804266900, 0.8465191959804266900, 0.8743367171602189900),
 ( 1.000000000000000000, 0.9681844298268274000, 0.9681844298268274000, 1.000000000000000000) ) ) 
 REPRESENTATION_ITEM ( '' )  SURFACE ( )  );
#116 = AXIS2_PLACEMENT_3D ( 'NONE', #15, #35, #38 ) ;
#117 = VECTOR ( 'NONE', #46, 1000.000000000000000 ) ;
#118 = CARTESIAN_POINT ( 'NONE',  ( -4.662936703425659800E-015, -8.881784197001250400E-016, 6.067316844051470400 ) ) ;
#119 = ORIENTED_EDGE ( 'NONE', *, *, #219, .T. ) ;
#120 = APPROVAL ( #175, 'UNSPECIFIED' ) ;
#121 = CARTESIAN_POINT ( 'NONE',  ( 20.52540751256442100, 7.338262299156581600, 4.211938332758470500 ) ) ;
#122 = VERTEX_POINT ( 'NONE', #151 ) ;
#123 = CARTESIAN_POINT ( 'NONE',  ( 10.96839306055745700, -19.24833650491548600, 7.923918897735363000 ) ) ;
#124 = CALENDAR_DATE ( 2018, 21, 12 ) ;
#125 = ORGANIZATION ( 'UNSPECIFIED', 'UNSPECIFIED', '' ) ;
#126 = CC_DESIGN_PERSON_AND_ORGANIZATION_ASSIGNMENT ( #149, #71, ( #112 ) ) ;
#127 = DIRECTION ( 'NONE',  ( -0.0000000000000000000, -0.0000000000000000000, -1.000000000000000000 ) ) ;
#128 = APPLICATION_PROTOCOL_DEFINITION ( 'international standard', 'config_control_design', 1994, #226 ) ;
#129 = PERSON_AND_ORGANIZATION_ROLE ( 'design_supplier' ) ;
#130 = FACE_OUTER_BOUND ( 'NONE', #141, .T. ) ;
#131 = ORIENTED_EDGE ( 'NONE', *, *, #16, .F. ) ;
#132 = PRODUCT_DEFINITION_FORMATION_WITH_SPECIFIED_SOURCE ( 'ANY', '', #174, .NOT_KNOWN. ) ;
#133 = APPROVAL_PERSON_ORGANIZATION ( #85, #120, #90 ) ;
#134 = SHAPE_DEFINITION_REPRESENTATION ( #59, #2 ) ;
#135 = ORIENTED_EDGE ( 'NONE', *, *, #207, .T. ) ;
#136 = CARTESIAN_POINT ( 'NONE',  ( 19.04999999999999700, -8.881784197001250400E-016, 6.067316844051470400 ) ) ;
#137 = DIRECTION ( 'NONE',  ( 1.000000000000000000, 0.0000000000000000000, 0.0000000000000000000 ) ) ;
#138 = PRODUCT_RELATED_PRODUCT_CATEGORY ( 'detail', '', ( #174 ) ) ;
#139 = FACE_OUTER_BOUND ( 'NONE', #103, .T. ) ;
#140 = ORIENTED_EDGE ( 'NONE', *, *, #207, .F. ) ;
#141 = EDGE_LOOP ( 'NONE', ( #170, #50, #221, #179, #234 ) ) ;
#142 = ORIENTED_EDGE ( 'NONE', *, *, #16, .T. ) ;
#143 = DIRECTION ( 'NONE',  ( 0.0000000000000000000, 0.0000000000000000000, 1.000000000000000000 ) ) ;
#144 = AXIS2_PLACEMENT_3D ( 'NONE', #202, #95, #232 ) ;
#145 = CARTESIAN_POINT ( 'NONE',  ( -4.662936703425659800E-015, -8.881784197001250400E-016, 6.067316844051470400 ) ) ;
#146 =( LENGTH_UNIT ( ) NAMED_UNIT ( * ) SI_UNIT ( .MILLI., .METRE. ) );
#147 = CARTESIAN_POINT ( 'NONE',  ( -19.05000000000000400, 1.444773732675583000E-015, 6.067316844051470400 ) ) ;
#148 = PRODUCT_DEFINITION ( 'UNKNOWN', '', #132, #37 ) ;
#149 = PERSON_AND_ORGANIZATION ( #9, #125 ) ;
#150 = APPROVAL_DATE_TIME ( #156, #159 ) ;
#151 = CARTESIAN_POINT ( 'NONE',  ( -3.552713678800500100E-015, 19.04999999999999700, 6.067316844051468600 ) ) ;
#152 = CARTESIAN_POINT ( 'NONE',  ( 5.618257581530842900, -19.24833650491548600, 6.209022805113574100 ) ) ;
#153 = ORIENTED_EDGE ( 'NONE', *, *, #105, .F. ) ;
#154 = CARTESIAN_POINT ( 'NONE',  ( -20.52540751256442400, 7.338262299156581600, 4.211938332758470500 ) ) ;
#155 = APPROVAL_PERSON_ORGANIZATION ( #214, #159, #70 ) ;
#156 = DATE_AND_TIME ( #124, #206 ) ;
#157 = DIRECTION ( 'NONE',  ( 1.000000000000000000, 0.0000000000000000000, 0.0000000000000000000 ) ) ;
#158 = APPLICATION_CONTEXT ( 'configuration controlled 3d designs of mechanical parts and assemblies' ) ;
#159 = APPROVAL ( #228, 'UNSPECIFIED' ) ;
#160 = PERSON_AND_ORGANIZATION_ROLE ( 'creator' ) ;
#161 = COORDINATED_UNIVERSAL_TIME_OFFSET ( 2, 0, .AHEAD. ) ;
#162 = DIRECTION ( 'NONE',  ( 0.0000000000000000000, 0.0000000000000000000, 1.000000000000000000 ) ) ;
#163 = LINE ( 'NONE', #208, #117 ) ;
#164 = EDGE_LOOP ( 'NONE', ( #215, #203, #198 ) ) ;
#165 = LOCAL_TIME ( 8, 57, 17.00000000000000000, #161 ) ;
#166 = COORDINATED_UNIVERSAL_TIME_OFFSET ( 2, 0, .AHEAD. ) ;
#167 = CARTESIAN_POINT ( 'NONE',  ( -4.662936703425659800E-015, -8.881784197001250400E-016, 6.067316844051470400 ) ) ;
#168 = ORIENTED_EDGE ( 'NONE', *, *, #83, .T. ) ;
#169 = ORIENTED_EDGE ( 'NONE', *, *, #20, .T. ) ;
#170 = ORIENTED_EDGE ( 'NONE', *, *, #184, .F. ) ;
#171 = CARTESIAN_POINT ( 'NONE',  ( -7.420775728133560500, 7.338262299156583300, -2.367136399227680600 ) ) ;
#172 = APPROVAL_STATUS ( 'not_yet_approved' ) ;
#173 = APPROVAL_ROLE ( '' ) ;
#174 = PRODUCT ( '110-0406E BK7 pl-cx 38.1 F63.5', '110-0406E BK7 pl-cx 38.1 F63.5', '', ( #196 ) ) ;
#175 = APPROVAL_STATUS ( 'not_yet_approved' ) ;
#176 = CIRCLE ( 'NONE', #181, 19.05000000000000100 ) ;
#177 = CC_DESIGN_APPROVAL ( #120, ( #148 ) ) ;
#178 = DATE_TIME_ROLE ( 'classification_date' ) ;
#179 = ORIENTED_EDGE ( 'NONE', *, *, #219, .F. ) ;
#180 = EDGE_LOOP ( 'NONE', ( #153, #212, #140, #119, #142 ) ) ;
#181 = AXIS2_PLACEMENT_3D ( 'NONE', #225, #82, #42 ) ;
#182 = ADVANCED_FACE ( 'NONE', ( #40 ), #115, .T. ) ;
#183 = CARTESIAN_POINT ( 'NONE',  ( -4.662936703425659800E-015, -8.881784197001250400E-016, 8.000000000000000000 ) ) ;
#184 = EDGE_CURVE ( 'NONE', #52, #122, #176, .T. ) ;
#185 = CARTESIAN_POINT ( 'NONE',  ( -3.552713678800500100E-015, -7.105427357601000300E-015, 32.93999999999999800 ) ) ;
#186 = CYLINDRICAL_SURFACE ( 'NONE', #144, 19.05000000000000100 ) ;
#187 = CC_DESIGN_PERSON_AND_ORGANIZATION_ASSIGNMENT ( #111, #91, ( #132 ) ) ;
#188 = CARTESIAN_POINT ( 'NONE',  ( 20.52540751256442400, -7.338262299156572700, 4.211938332758469600 ) ) ;
#189 = DIRECTION ( 'NONE',  ( 1.000000000000000000, 0.0000000000000000000, 0.0000000000000000000 ) ) ;
#190 = CIRCLE ( 'NONE', #116, 19.05000000000000100 ) ;
#191 = ORIENTED_EDGE ( 'NONE', *, *, #101, .F. ) ;
#192 = DIRECTION ( 'NONE',  ( 1.000000000000000000, 0.0000000000000000000, 0.0000000000000000000 ) ) ;
#193 = AXIS2_PLACEMENT_3D ( 'NONE', #227, #162, #51 ) ;
#194 = PERSON_AND_ORGANIZATION_ROLE ( 'design_owner' ) ;
#195 = CIRCLE ( 'NONE', #93, 19.05000000000000100 ) ;
#196 = MECHANICAL_CONTEXT ( 'NONE', #226, 'mechanical' ) ;
#197 = PERSON_AND_ORGANIZATION ( #9, #125 ) ;
#198 = ORIENTED_EDGE ( 'NONE', *, *, #184, .T. ) ;
#199 = AXIS2_PLACEMENT_3D ( 'NONE', #47, #127, #157 ) ;
#200 = DATE_AND_TIME ( #204, #25 ) ;
#201 = CIRCLE ( 'NONE', #80, 19.05000000000000100 ) ;
#202 = CARTESIAN_POINT ( 'NONE',  ( -4.662936703425659800E-015, -8.881784197001250400E-016, 6.067316844051470400 ) ) ;
#203 = ORIENTED_EDGE ( 'NONE', *, *, #230, .T. ) ;
#204 = CALENDAR_DATE ( 2018, 21, 12 ) ;
#205 = CARTESIAN_POINT ( 'NONE',  ( -1.387778780781445700E-014, 7.338262299156581600, -2.367136399227682800 ) ) ;
#206 = LOCAL_TIME ( 8, 57, 17.00000000000000000, #166 ) ;
#207 = EDGE_CURVE ( 'NONE', #89, #213, #81, .T. ) ;
#208 = CARTESIAN_POINT ( 'NONE',  ( 19.04999999999999700, -8.881784197001250400E-016, 6.067316844051470400 ) ) ;
#209 = CARTESIAN_POINT ( 'NONE',  ( -20.52540751256442400, -7.338262299156572700, 4.211938332758466100 ) ) ;
#210 = PLANE ( 'NONE',  #36 ) ;
#211 = CARTESIAN_POINT ( 'NONE',  ( -5.618257581530852600, 19.24833650491548900, 6.209022805113586500 ) ) ;
#212 = ORIENTED_EDGE ( 'NONE', *, *, #230, .F. ) ;
#213 = VERTEX_POINT ( 'NONE', #222 ) ;
#214 = PERSON_AND_ORGANIZATION ( #9, #125 ) ;
#215 = ORIENTED_EDGE ( 'NONE', *, *, #20, .F. ) ;
#216 = CARTESIAN_POINT ( 'NONE',  ( -19.05000000000000400, 1.444773732675583000E-015, 8.000000000000000000 ) ) ;
#217 = LOCAL_TIME ( 8, 57, 17.00000000000000000, #31 ) ;
#218 = DIRECTION ( 'NONE',  ( -0.0000000000000000000, -0.0000000000000000000, -1.000000000000000000 ) ) ;
#219 = EDGE_CURVE ( 'NONE', #89, #69, #163, .T. ) ;
#220 = APPROVAL_PERSON_ORGANIZATION ( #197, #99, #173 ) ;
#221 = ORIENTED_EDGE ( 'NONE', *, *, #101, .T. ) ;
#222 = CARTESIAN_POINT ( 'NONE',  ( -3.552713678800500100E-015, -19.05000000000000400, 6.067316844051468600 ) ) ;
#223 = CARTESIAN_POINT ( 'NONE',  ( 7.420775728133548900, -7.338262299156573600, -2.367136399227684200 ) ) ;
#224 = CARTESIAN_POINT ( 'NONE',  ( -7.420775728133558700, -7.338262299156573600, -2.367136399227686400 ) ) ;
#225 = CARTESIAN_POINT ( 'NONE',  ( -4.662936703425659800E-015, -8.881784197001250400E-016, 6.067316844051470400 ) ) ;
#226 = APPLICATION_CONTEXT ( 'configuration controlled 3d designs of mechanical parts and assemblies' ) ;
#227 = CARTESIAN_POINT ( 'NONE',  ( 0.0000000000000000000, 0.0000000000000000000, 0.0000000000000000000 ) ) ;
#228 = APPROVAL_STATUS ( 'not_yet_approved' ) ;
#229 = ADVANCED_FACE ( 'NONE', ( #139 ), #210, .T. ) ;
#230 = EDGE_CURVE ( 'NONE', #213, #52, #64, .T. ) ;
#231 = ADVANCED_FACE ( 'NONE', ( #17 ), #76, .T. ) ;
#232 = DIRECTION ( 'NONE',  ( 1.000000000000000000, 0.0000000000000000000, 0.0000000000000000000 ) ) ;
#233 = CIRCLE ( 'NONE', #39, 32.93999999999999800 ) ;
#234 = ORIENTED_EDGE ( 'NONE', *, *, #83, .F. ) ;
#235 = AXIS2_PLACEMENT_3D ( 'NONE', #167, #75, #14 ) ;
ENDSEC;
END-ISO-10303-21;
