ISO-10303-21;
HEADER;
FILE_DESCRIPTION (( 'STEP AP203' ),
    '1' );
FILE_NAME ('110-0405E BK7 pl-cx 38.1 F50.STEP',
    '2018-12-21T06:57:30',
    ( '' ),
    ( '' ),
    'SwSTEP 2.0',
    'SolidWorks 2017',
    '' );
FILE_SCHEMA (( 'CONFIG_CONTROL_DESIGN' ));
ENDSEC;

DATA;
#1 = AXIS2_PLACEMENT_3D ( 'NONE', #103, #117, #84 ) ;
#2 = CARTESIAN_POINT ( 'NONE',  ( 9.500277637862771100, 19.22331628676024100, 10.52250083790619300 ) ) ;
#3 = CARTESIAN_POINT ( 'NONE',  ( -19.05000000000000400, 1.444773732675583000E-015, 8.333719870455299300 ) ) ;
#4 = CC_DESIGN_PERSON_AND_ORGANIZATION_ASSIGNMENT ( #130, #149, ( #39 ) ) ;
#5 = CARTESIAN_POINT ( 'NONE',  ( -5.329070518200749800E-015, 19.04999999999999400, 8.333719870455297500 ) ) ;
#6 = ORIENTED_EDGE ( 'NONE', *, *, #99, .F. ) ;
#7 = EDGE_CURVE ( 'NONE', #205, #114, #71, .T. ) ;
#8 = DIRECTION ( 'NONE',  ( 0.0000000000000000000, 0.0000000000000000000, 1.000000000000000000 ) ) ;
#9 = APPROVAL_STATUS ( 'not_yet_approved' ) ;
#10 = FACE_OUTER_BOUND ( 'NONE', #234, .T. ) ;
#11 = APPROVAL_DATE_TIME ( #230, #175 ) ;
#12 = VERTEX_POINT ( 'NONE', #206 ) ;
#13 = ADVANCED_FACE ( 'NONE', ( #10 ), #15, .T. ) ;
#14 = CLOSED_SHELL ( 'NONE', ( #13, #168, #186, #37, #171 ) ) ;
#15 =( BOUNDED_SURFACE ( )  B_SPLINE_SURFACE ( 3, 3, ( 
 ( #217, #113, #153, #235 ),
 ( #189, #83, #81, #136 ),
 ( #22, #132, #20, #154 ),
 ( #18, #43, #2, #79 ) ),
 .UNSPECIFIED., .F., .F., .T. ) 
 B_SPLINE_SURFACE_WITH_KNOTS ( ( 4, 4 ),
 ( 4, 4 ),
 ( 0.0000000000000000000, 1.000000000000000000 ),
 ( 0.0000000000000000000, 1.000000000000000000 ),
 .UNSPECIFIED. ) 
 GEOMETRIC_REPRESENTATION_ITEM ( )  RATIONAL_B_SPLINE_SURFACE ( (
 ( 1.000000000000000000, 0.9434496163412298100, 0.9434496163412298100, 1.000000000000000000),
 ( 0.7809529698677135600, 0.7367897798022383600, 0.7367897798022383600, 0.7809529698677135600),
 ( 0.7809529698677135600, 0.7367897798022383600, 0.7367897798022383600, 0.7809529698677135600),
 ( 1.000000000000000000, 0.9434496163412298100, 0.9434496163412298100, 1.000000000000000000) ) ) 
 REPRESENTATION_ITEM ( '' )  SURFACE ( )  );
#16 = APPROVAL_PERSON_ORGANIZATION ( #174, #54, #72 ) ;
#17 = EDGE_CURVE ( 'NONE', #114, #205, #32, .T. ) ;
#18 = CARTESIAN_POINT ( 'NONE',  ( -5.329070518200749800E-015, 19.22331628676024500, 8.523119942447255700 ) ) ;
#19 = EDGE_CURVE ( 'NONE', #167, #114, #202, .T. ) ;
#20 = CARTESIAN_POINT ( 'NONE',  ( 16.13368163071282500, 8.205067837404037300, -0.2425003967948587700 ) ) ;
#21 = ORIENTED_EDGE ( 'NONE', *, *, #19, .T. ) ;
#22 = CARTESIAN_POINT ( 'NONE',  ( -5.329070518200749000E-015, 8.205067837404039100, -3.637914305258361100 ) ) ;
#23 = CARTESIAN_POINT ( 'NONE',  ( -4.662936703425659800E-015, -8.881784197001250400E-016, 12.00000000000000000 ) ) ;
#24 = DIRECTION ( 'NONE',  ( 0.0000000000000000000, 0.0000000000000000000, 1.000000000000000000 ) ) ;
#25 = PERSON_AND_ORGANIZATION ( #77, #143 ) ;
#26 = CARTESIAN_POINT ( 'NONE',  ( 19.04999999999999700, -8.881784197001250400E-016, 8.333719870455299300 ) ) ;
#27 = CARTESIAN_POINT ( 'NONE',  ( -4.662936703425659800E-015, -8.881784197001250400E-016, 8.333719870455299300 ) ) ;
#28 = PRODUCT_DEFINITION_SHAPE ( 'NONE', 'NONE',  #170 ) ;
#29 = DIRECTION ( 'NONE',  ( 0.0000000000000000000, -1.000000000000000000, -5.349956749350214300E-016 ) ) ;
#30 = CARTESIAN_POINT ( 'NONE',  ( 0.0000000000000000000, 0.0000000000000000000, 0.0000000000000000000 ) ) ;
#31 = LOCAL_TIME ( 8, 57, 30.00000000000000000, #184 ) ;
#32 = CIRCLE ( 'NONE', #228, 19.05000000000000100 ) ;
#33 = SECURITY_CLASSIFICATION ( '', '', #126 ) ;
#34 = EDGE_CURVE ( 'NONE', #167, #12, #196, .T. ) ;
#35 = COORDINATED_UNIVERSAL_TIME_OFFSET ( 2, 0, .AHEAD. ) ;
#36 = VECTOR ( 'NONE', #141, 1000.000000000000000 ) ;
#37 = ADVANCED_FACE ( 'NONE', ( #180 ), #131, .T. ) ;
#38 = UNCERTAINTY_MEASURE_WITH_UNIT (LENGTH_MEASURE( 1.000000000000000100E-005 ), #68, 'distance_accuracy_value', 'NONE');
#39 = PRODUCT_DEFINITION_FORMATION_WITH_SPECIFIED_SOURCE ( 'ANY', '', #75, .NOT_KNOWN. ) ;
#40 = PERSON_AND_ORGANIZATION ( #77, #143 ) ;
#41 = APPROVAL_PERSON_ORGANIZATION ( #218, #157, #124 ) ;
#42 = EDGE_LOOP ( 'NONE', ( #6, #105, #73, #21, #185 ) ) ;
#43 = CARTESIAN_POINT ( 'NONE',  ( 4.960528668444531800, 19.22331628676024100, 8.523119942447253900 ) ) ;
#44 = DIRECTION ( 'NONE',  ( -0.0000000000000000000, -0.0000000000000000000, -1.000000000000000000 ) ) ;
#45 = LOCAL_TIME ( 8, 57, 30.00000000000000000, #179 ) ;
#46 = CARTESIAN_POINT ( 'NONE',  ( -16.13368163071281800, -8.205067837404051500, -0.2425003967948631300 ) ) ;
#47 = CARTESIAN_POINT ( 'NONE',  ( -21.82071569876438500, 8.205067837404032000, 5.972291542520324900 ) ) ;
#48 = ORIENTED_EDGE ( 'NONE', *, *, #61, .F. ) ;
#49 = EDGE_CURVE ( 'NONE', #64, #144, #210, .T. ) ;
#50 = EDGE_CURVE ( 'NONE', #12, #64, #135, .T. ) ;
#51 =( NAMED_UNIT ( * ) PLANE_ANGLE_UNIT ( ) SI_UNIT ( $, .RADIAN. ) );
#52 = APPROVAL_DATE_TIME ( #139, #157 ) ;
#53 = ORIENTED_EDGE ( 'NONE', *, *, #34, .T. ) ;
#54 = APPROVAL ( #201, 'UNSPECIFIED' ) ;
#55 = AXIS2_PLACEMENT_3D ( 'NONE', #88, #24, #193 ) ;
#56 = DIRECTION ( 'NONE',  ( 1.000000000000000000, 0.0000000000000000000, 0.0000000000000000000 ) ) ;
#57 = ORIENTED_EDGE ( 'NONE', *, *, #99, .T. ) ;
#58 = AXIS2_PLACEMENT_3D ( 'NONE', #27, #138, #161 ) ;
#59 = ORIENTED_EDGE ( 'NONE', *, *, #151, .F. ) ;
#60 = DIRECTION ( 'NONE',  ( 1.000000000000000000, 0.0000000000000000000, 0.0000000000000000000 ) ) ;
#61 = EDGE_CURVE ( 'NONE', #12, #144, #216, .T. ) ;
#62 = CARTESIAN_POINT ( 'NONE',  ( -8.424131726187345800, -8.205067837404049800, -3.637914305258357600 ) ) ;
#63 = CARTESIAN_POINT ( 'NONE',  ( -3.469446951953614200E-015, 19.22331628676024800, 8.523119942447255700 ) ) ;
#64 = VERTEX_POINT ( 'NONE', #3 ) ;
#65 = APPLICATION_CONTEXT ( 'configuration controlled 3d designs of mechanical parts and assemblies' ) ;
#66 = CYLINDRICAL_SURFACE ( 'NONE', #67, 19.05000000000000100 ) ;
#67 = AXIS2_PLACEMENT_3D ( 'NONE', #116, #8, #195 ) ;
#68 =( LENGTH_UNIT ( ) NAMED_UNIT ( * ) SI_UNIT ( .MILLI., .METRE. ) );
#69 = CC_DESIGN_APPROVAL ( #54, ( #33 ) ) ;
#70 = PERSON_AND_ORGANIZATION ( #77, #143 ) ;
#71 = CIRCLE ( 'NONE', #115, 19.05000000000000100 ) ;
#72 = APPROVAL_ROLE ( '' ) ;
#73 = ORIENTED_EDGE ( 'NONE', *, *, #34, .F. ) ;
#74 = DATE_TIME_ROLE ( 'classification_date' ) ;
#75 = PRODUCT ( '110-0405E BK7 pl-cx 38.1 F50', '110-0405E BK7 pl-cx 38.1 F50', '', ( #93 ) ) ;
#76 = CC_DESIGN_PERSON_AND_ORGANIZATION_ASSIGNMENT ( #40, #148, ( #75 ) ) ;
#77 = PERSON ( 'UNSPECIFIED', 'UNSPECIFIED', 'UNSPECIFIED', ('UNSPECIFIED'), ('UNSPECIFIED'), ('UNSPECIFIED') ) ;
#78 = CALENDAR_DATE ( 2018, 21, 12 ) ;
#79 = CARTESIAN_POINT ( 'NONE',  ( 12.84907327044938400, 19.22331628676024100, 14.18206535866941700 ) ) ;
#80 = DIRECTION ( 'NONE',  ( 1.000000000000000000, 0.0000000000000000000, 0.0000000000000000000 ) ) ;
#81 = CARTESIAN_POINT ( 'NONE',  ( 16.13368163071281800, -8.205067837404049800, -0.2425003967948579400 ) ) ;
#82 = CIRCLE ( 'NONE', #165, 19.05000000000000100 ) ;
#83 = CARTESIAN_POINT ( 'NONE',  ( 8.424131726187340500, -8.205067837404048000, -3.637914305258358000 ) ) ;
#84 = DIRECTION ( 'NONE',  ( 1.000000000000000000, 0.0000000000000000000, 0.0000000000000000000 ) ) ;
#85 = CARTESIAN_POINT ( 'NONE',  ( -9.500277637862751600, -19.22331628676024500, 10.52250083790619700 ) ) ;
#86 = DATE_AND_TIME ( #97, #104 ) ;
#87 = DIRECTION ( 'NONE',  ( 1.000000000000000000, 0.0000000000000000000, 0.0000000000000000000 ) ) ;
#88 = CARTESIAN_POINT ( 'NONE',  ( 0.0000000000000000000, 39.06600000000000300, 12.00000000000000000 ) ) ;
#89 = LOCAL_TIME ( 8, 57, 30.00000000000000000, #125 ) ;
#90 = AXIS2_PLACEMENT_3D ( 'NONE', #119, #226, #60 ) ;
#91 = APPLICATION_PROTOCOL_DEFINITION ( 'international standard', 'config_control_design', 1994, #214 ) ;
#92 = COORDINATED_UNIVERSAL_TIME_OFFSET ( 2, 0, .AHEAD. ) ;
#93 = MECHANICAL_CONTEXT ( 'NONE', #214, 'mechanical' ) ;
#94 = PERSON_AND_ORGANIZATION_ROLE ( 'creator' ) ;
#95 = EDGE_LOOP ( 'NONE', ( #128, #150 ) ) ;
#96 = CC_DESIGN_PERSON_AND_ORGANIZATION_ASSIGNMENT ( #25, #166, ( #33 ) ) ;
#97 = CALENDAR_DATE ( 2018, 21, 12 ) ;
#98 = ORIENTED_EDGE ( 'NONE', *, *, #61, .T. ) ;
#99 = EDGE_CURVE ( 'NONE', #64, #205, #112, .T. ) ;
#100 = DIRECTION ( 'NONE',  ( 0.0000000000000000000, 0.0000000000000000000, 1.000000000000000000 ) ) ;
#101 = CARTESIAN_POINT ( 'NONE',  ( -4.960528668444530900, -19.22331628676024100, 8.523119942447264600 ) ) ;
#102 = CARTESIAN_POINT ( 'NONE',  ( -16.13368163071282500, 8.205067837404037300, -0.2425003967948648500 ) ) ;
#103 = CARTESIAN_POINT ( 'NONE',  ( -4.662936703425659800E-015, -8.881784197001250400E-016, 8.333719870455299300 ) ) ;
#104 = LOCAL_TIME ( 8, 57, 30.00000000000000000, #92 ) ;
#105 = ORIENTED_EDGE ( 'NONE', *, *, #50, .F. ) ;
#106 = CARTESIAN_POINT ( 'NONE',  ( -12.84907327044936100, -19.22331628676025200, 14.18206535866940700 ) ) ;
#107 = APPROVAL_STATUS ( 'not_yet_approved' ) ;
#108 = PERSON_AND_ORGANIZATION_ROLE ( 'creator' ) ;
#109 = CC_DESIGN_SECURITY_CLASSIFICATION ( #33, ( #39 ) ) ;
#110 = ORIENTED_EDGE ( 'NONE', *, *, #49, .F. ) ;
#111 = AXIS2_PLACEMENT_3D ( 'NONE', #159, #178, #173 ) ;
#112 = LINE ( 'NONE', #191, #36 ) ;
#113 = CARTESIAN_POINT ( 'NONE',  ( 4.960528668444523800, -19.22331628676024500, 8.523119942447264600 ) ) ;
#114 = VERTEX_POINT ( 'NONE', #224 ) ;
#115 = AXIS2_PLACEMENT_3D ( 'NONE', #23, #190, #80 ) ;
#116 = CARTESIAN_POINT ( 'NONE',  ( -4.662936703425659800E-015, -8.881784197001250400E-016, 8.333719870455299300 ) ) ;
#117 = DIRECTION ( 'NONE',  ( 0.0000000000000000000, 0.0000000000000000000, 1.000000000000000000 ) ) ;
#118 = DATE_AND_TIME ( #78, #89 ) ;
#119 = CARTESIAN_POINT ( 'NONE',  ( -4.662936703425659800E-015, -8.881784197001250400E-016, 8.333719870455299300 ) ) ;
#120 = FACE_OUTER_BOUND ( 'NONE', #95, .T. ) ;
#121 = CC_DESIGN_DATE_AND_TIME_ASSIGNMENT ( #160, #74, ( #33 ) ) ;
#122 =( GEOMETRIC_REPRESENTATION_CONTEXT ( 3 ) GLOBAL_UNCERTAINTY_ASSIGNED_CONTEXT ( ( #38 ) ) GLOBAL_UNIT_ASSIGNED_CONTEXT ( ( #68, #51, #229 ) ) REPRESENTATION_CONTEXT ( 'NONE', 'WORKASPACE' ) );
#123 = FACE_OUTER_BOUND ( 'NONE', #169, .T. ) ;
#124 = APPROVAL_ROLE ( '' ) ;
#125 = COORDINATED_UNIVERSAL_TIME_OFFSET ( 2, 0, .AHEAD. ) ;
#126 = SECURITY_CLASSIFICATION_LEVEL ( 'unclassified' ) ;
#127 = APPROVAL_PERSON_ORGANIZATION ( #221, #175, #145 ) ;
#128 = ORIENTED_EDGE ( 'NONE', *, *, #17, .F. ) ;
#129 = AXIS2_PLACEMENT_3D ( 'NONE', #30, #182, #197 ) ;
#130 = PERSON_AND_ORGANIZATION ( #77, #143 ) ;
#131 = CYLINDRICAL_SURFACE ( 'NONE', #1, 19.05000000000000100 ) ;
#132 = CARTESIAN_POINT ( 'NONE',  ( 8.424131726187342300, 8.205067837404039100, -3.637914305258360700 ) ) ;
#133 = DESIGN_CONTEXT ( 'detailed design', #65, 'design' ) ;
#134 = CALENDAR_DATE ( 2018, 21, 12 ) ;
#135 = CIRCLE ( 'NONE', #90, 19.05000000000000100 ) ;
#136 = CARTESIAN_POINT ( 'NONE',  ( 21.82071569876438100, -8.205067837404055100, 5.972291542520340900 ) ) ;
#137 = CARTESIAN_POINT ( 'NONE',  ( -4.662936703425659800E-015, -8.881784197001250400E-016, 12.00000000000000000 ) ) ;
#138 = DIRECTION ( 'NONE',  ( -0.0000000000000000000, -0.0000000000000000000, -1.000000000000000000 ) ) ;
#139 = DATE_AND_TIME ( #192, #147 ) ;
#140 = CARTESIAN_POINT ( 'NONE',  ( -12.84907327044938600, 19.22331628676024100, 14.18206535866940700 ) ) ;
#141 = DIRECTION ( 'NONE',  ( 0.0000000000000000000, 0.0000000000000000000, 1.000000000000000000 ) ) ;
#142 = CARTESIAN_POINT ( 'NONE',  ( -8.424131726187349400, 8.205067837404039100, -3.637914305258362500 ) ) ;
#143 = ORGANIZATION ( 'UNSPECIFIED', 'UNSPECIFIED', '' ) ;
#144 = VERTEX_POINT ( 'NONE', #5 ) ;
#145 = APPROVAL_ROLE ( '' ) ;
#146 = APPLICATION_PROTOCOL_DEFINITION ( 'international standard', 'config_control_design', 1994, #65 ) ;
#147 = LOCAL_TIME ( 8, 57, 30.00000000000000000, #35 ) ;
#148 = PERSON_AND_ORGANIZATION_ROLE ( 'design_owner' ) ;
#149 = PERSON_AND_ORGANIZATION_ROLE ( 'design_supplier' ) ;
#150 = ORIENTED_EDGE ( 'NONE', *, *, #7, .F. ) ;
#151 = EDGE_CURVE ( 'NONE', #144, #167, #82, .T. ) ;
#152 = PERSON_AND_ORGANIZATION ( #77, #143 ) ;
#153 = CARTESIAN_POINT ( 'NONE',  ( 9.500277637862751600, -19.22331628676024500, 10.52250083790620000 ) ) ;
#154 = CARTESIAN_POINT ( 'NONE',  ( 21.82071569876438500, 8.205067837404032000, 5.972291542520342700 ) ) ;
#155 = CARTESIAN_POINT ( 'NONE',  ( 19.04999999999999700, -8.881784197001250400E-016, 8.333719870455299300 ) ) ;
#156 = VECTOR ( 'NONE', #100, 1000.000000000000000 ) ;
#157 = APPROVAL ( #107, 'UNSPECIFIED' ) ;
#158 = CARTESIAN_POINT ( 'NONE',  ( -4.662936703425659800E-015, -8.881784197001250400E-016, 8.333719870455299300 ) ) ;
#159 = CARTESIAN_POINT ( 'NONE',  ( -4.662936703425659800E-015, -8.881784197001250400E-016, 8.333719870455299300 ) ) ;
#160 = DATE_AND_TIME ( #134, #45 ) ;
#161 = DIRECTION ( 'NONE',  ( 1.000000000000000000, 0.0000000000000000000, 0.0000000000000000000 ) ) ;
#162 = ADVANCED_BREP_SHAPE_REPRESENTATION ( '110-0405E BK7 pl-cx 38.1 F50', ( #204, #129 ), #122 ) ;
#163 = ORIENTED_EDGE ( 'NONE', *, *, #49, .T. ) ;
#164 = CARTESIAN_POINT ( 'NONE',  ( -19.05000000000000400, 1.444773732675583000E-015, 12.00000000000000000 ) ) ;
#165 = AXIS2_PLACEMENT_3D ( 'NONE', #158, #220, #87 ) ;
#166 = PERSON_AND_ORGANIZATION_ROLE ( 'classification_officer' ) ;
#167 = VERTEX_POINT ( 'NONE', #26 ) ;
#168 = ADVANCED_FACE ( 'NONE', ( #227 ), #66, .T. ) ;
#169 = EDGE_LOOP ( 'NONE', ( #48, #199, #163 ) ) ;
#170 = PRODUCT_DEFINITION ( 'UNKNOWN', '', #39, #133 ) ;
#171 = ADVANCED_FACE ( 'NONE', ( #120 ), #176, .T. ) ;
#172 = SHAPE_DEFINITION_REPRESENTATION ( #28, #162 ) ;
#173 = DIRECTION ( 'NONE',  ( 1.000000000000000000, 0.0000000000000000000, 0.0000000000000000000 ) ) ;
#174 = PERSON_AND_ORGANIZATION ( #77, #143 ) ;
#175 = APPROVAL ( #9, 'UNSPECIFIED' ) ;
#176 = PLANE ( 'NONE',  #55 ) ;
#177 = CARTESIAN_POINT ( 'NONE',  ( -4.960528668444537100, 19.22331628676024500, 8.523119942447253900 ) ) ;
#178 = DIRECTION ( 'NONE',  ( -0.0000000000000000000, -0.0000000000000000000, -1.000000000000000000 ) ) ;
#179 = COORDINATED_UNIVERSAL_TIME_OFFSET ( 2, 0, .AHEAD. ) ;
#180 = FACE_OUTER_BOUND ( 'NONE', #42, .T. ) ;
#181 = CC_DESIGN_APPROVAL ( #157, ( #170 ) ) ;
#182 = DIRECTION ( 'NONE',  ( 0.0000000000000000000, 0.0000000000000000000, 1.000000000000000000 ) ) ;
#183 = CALENDAR_DATE ( 2018, 21, 12 ) ;
#184 = COORDINATED_UNIVERSAL_TIME_OFFSET ( 2, 0, .AHEAD. ) ;
#185 = ORIENTED_EDGE ( 'NONE', *, *, #17, .T. ) ;
#186 = ADVANCED_FACE ( 'NONE', ( #123 ), #225, .T. ) ;
#187 = CC_DESIGN_APPROVAL ( #175, ( #39 ) ) ;
#188 = ORIENTED_EDGE ( 'NONE', *, *, #151, .T. ) ;
#189 = CARTESIAN_POINT ( 'NONE',  ( -5.329070518200749000E-015, -8.205067837404048000, -3.637914305258357100 ) ) ;
#190 = DIRECTION ( 'NONE',  ( -0.0000000000000000000, -0.0000000000000000000, -1.000000000000000000 ) ) ;
#191 = CARTESIAN_POINT ( 'NONE',  ( -19.05000000000000400, 1.444773732675583000E-015, 8.333719870455299300 ) ) ;
#192 = CALENDAR_DATE ( 2018, 21, 12 ) ;
#193 = DIRECTION ( 'NONE',  ( 1.000000000000000000, 0.0000000000000000000, -0.0000000000000000000 ) ) ;
#194 = CARTESIAN_POINT ( 'NONE',  ( -9.500277637862772900, 19.22331628676024100, 10.52250083790618800 ) ) ;
#195 = DIRECTION ( 'NONE',  ( 1.000000000000000000, 0.0000000000000000000, 0.0000000000000000000 ) ) ;
#196 = CIRCLE ( 'NONE', #58, 19.05000000000000100 ) ;
#197 = DIRECTION ( 'NONE',  ( 1.000000000000000000, 0.0000000000000000000, 0.0000000000000000000 ) ) ;
#198 = CC_DESIGN_PERSON_AND_ORGANIZATION_ASSIGNMENT ( #152, #94, ( #39 ) ) ;
#199 = ORIENTED_EDGE ( 'NONE', *, *, #50, .T. ) ;
#200 = PRODUCT_RELATED_PRODUCT_CATEGORY ( 'detail', '', ( #75 ) ) ;
#201 = APPROVAL_STATUS ( 'not_yet_approved' ) ;
#202 = LINE ( 'NONE', #155, #156 ) ;
#203 = ORIENTED_EDGE ( 'NONE', *, *, #7, .T. ) ;
#204 = MANIFOLD_SOLID_BREP ( 'Imported1', #14 ) ;
#205 = VERTEX_POINT ( 'NONE', #164 ) ;
#206 = CARTESIAN_POINT ( 'NONE',  ( -5.329070518200749800E-015, -19.04999999999999000, 8.333719870455301000 ) ) ;
#207 = CARTESIAN_POINT ( 'NONE',  ( -5.329070518200749800E-015, 3.552713678800500100E-015, 25.94000000000000100 ) ) ;
#208 = CARTESIAN_POINT ( 'NONE',  ( -6.938893903907228400E-015, -8.205067837404051500, -3.637914305258357100 ) ) ;
#209 = CARTESIAN_POINT ( 'NONE',  ( -6.938893903907228400E-015, -19.22331628676024500, 8.523119942447264600 ) ) ;
#210 = CIRCLE ( 'NONE', #111, 19.05000000000000100 ) ;
#211 = DIRECTION ( 'NONE',  ( 1.000000000000000000, 0.0000000000000000000, 0.0000000000000000000 ) ) ;
#212 = DATE_TIME_ROLE ( 'creation_date' ) ;
#213 = CC_DESIGN_PERSON_AND_ORGANIZATION_ASSIGNMENT ( #70, #108, ( #170 ) ) ;
#214 = APPLICATION_CONTEXT ( 'configuration controlled 3d designs of mechanical parts and assemblies' ) ;
#215 = APPROVAL_DATE_TIME ( #118, #54 ) ;
#216 = CIRCLE ( 'NONE', #231, 25.94000000000000100 ) ;
#217 = CARTESIAN_POINT ( 'NONE',  ( -5.329070518200749800E-015, -19.22331628676024800, 8.523119942447264600 ) ) ;
#218 = PERSON_AND_ORGANIZATION ( #77, #143 ) ;
#219 = EDGE_LOOP ( 'NONE', ( #110, #57, #203, #232, #59 ) ) ;
#220 = DIRECTION ( 'NONE',  ( -0.0000000000000000000, -0.0000000000000000000, -1.000000000000000000 ) ) ;
#221 = PERSON_AND_ORGANIZATION ( #77, #143 ) ;
#222 = CARTESIAN_POINT ( 'NONE',  ( -6.938893903907228400E-015, 8.205067837404039100, -3.637914305258362900 ) ) ;
#223 = CARTESIAN_POINT ( 'NONE',  ( -21.82071569876437400, -8.205067837404056900, 5.972291542520324900 ) ) ;
#224 = CARTESIAN_POINT ( 'NONE',  ( 19.04999999999999700, -8.881784197001250400E-016, 12.00000000000000000 ) ) ;
#225 =( BOUNDED_SURFACE ( )  B_SPLINE_SURFACE ( 3, 3, ( 
 ( #106, #85, #101, #209 ),
 ( #223, #46, #62, #208 ),
 ( #47, #102, #142, #222 ),
 ( #140, #194, #177, #63 ) ),
 .UNSPECIFIED., .F., .F., .F. ) 
 B_SPLINE_SURFACE_WITH_KNOTS ( ( 4, 4 ),
 ( 4, 4 ),
 ( 0.0000000000000000000, 1.000000000000000000 ),
 ( 0.0000000000000000000, 1.000000000000000000 ),
 .UNSPECIFIED. ) 
 GEOMETRIC_REPRESENTATION_ITEM ( )  RATIONAL_B_SPLINE_SURFACE ( (
 ( 1.000000000000000000, 0.9434496163412298100, 0.9434496163412298100, 1.000000000000000000),
 ( 0.7809529698677135600, 0.7367897798022383600, 0.7367897798022383600, 0.7809529698677135600),
 ( 0.7809529698677135600, 0.7367897798022383600, 0.7367897798022383600, 0.7809529698677135600),
 ( 1.000000000000000000, 0.9434496163412298100, 0.9434496163412298100, 1.000000000000000000) ) ) 
 REPRESENTATION_ITEM ( '' )  SURFACE ( )  );
#226 = DIRECTION ( 'NONE',  ( -0.0000000000000000000, -0.0000000000000000000, -1.000000000000000000 ) ) ;
#227 = FACE_OUTER_BOUND ( 'NONE', #219, .T. ) ;
#228 = AXIS2_PLACEMENT_3D ( 'NONE', #137, #44, #56 ) ;
#229 =( NAMED_UNIT ( * ) SI_UNIT ( $, .STERADIAN. ) SOLID_ANGLE_UNIT ( ) );
#230 = DATE_AND_TIME ( #183, #31 ) ;
#231 = AXIS2_PLACEMENT_3D ( 'NONE', #207, #211, #29 ) ;
#232 = ORIENTED_EDGE ( 'NONE', *, *, #19, .F. ) ;
#233 = CC_DESIGN_DATE_AND_TIME_ASSIGNMENT ( #86, #212, ( #170 ) ) ;
#234 = EDGE_LOOP ( 'NONE', ( #53, #98, #188 ) ) ;
#235 = CARTESIAN_POINT ( 'NONE',  ( 12.84907327044936000, -19.22331628676025200, 14.18206535866941700 ) ) ;
ENDSEC;
END-ISO-10303-21;
