ISO-10303-21;
HEADER;
FILE_DESCRIPTION (( 'STEP AP203' ),
    '1' );
FILE_NAME ('110-0295E BK7 pl-cx 25.4 F10000.STEP',
    '2018-12-21T06:40:48',
    ( '' ),
    ( '' ),
    'SwSTEP 2.0',
    'SolidWorks 2017',
    '' );
FILE_SCHEMA (( 'CONFIG_CONTROL_DESIGN' ));
ENDSEC;

DATA;
#1 = COORDINATED_UNIVERSAL_TIME_OFFSET ( 2, 0, .AHEAD. ) ;
#2 = EDGE_LOOP ( 'NONE', ( #155, #229, #216, #86, #186 ) ) ;
#3 = EDGE_CURVE ( 'NONE', #55, #135, #130, .T. ) ;
#4 = CARTESIAN_POINT ( 'NONE',  ( 4.258725591585345200, -12.85239968991214900, 0.01592292571128563200 ) ) ;
#5 = CALENDAR_DATE ( 2018, 21, 12 ) ;
#6 = CARTESIAN_POINT ( 'NONE',  ( 0.0000000000000000000, 0.0000000000000000000, 0.0000000000000000000 ) ) ;
#7 = CARTESIAN_POINT ( 'NONE',  ( 4.996003610813200500E-016, 2.442490654175340100E-015, 0.01554754595394190100 ) ) ;
#8 = CARTESIAN_POINT ( 'NONE',  ( 8.517447953477754300, 12.85239968991251500, 0.02116780430312734800 ) ) ;
#9 = CARTESIAN_POINT ( 'NONE',  ( 4.258743022756633900, 4.284141997540496400, -0.005307652765956078500 ) ) ;
#10 = CARTESIAN_POINT ( 'NONE',  ( -12.69999999999999900, 3.997792089092478900E-015, 0.01554754595394190100 ) ) ;
#11 = ORGANIZATION ( 'UNSPECIFIED', 'UNSPECIFIED', '' ) ;
#12 = ORIENTED_EDGE ( 'NONE', *, *, #153, .F. ) ;
#13 = EDGE_CURVE ( 'NONE', #55, #59, #38, .T. ) ;
#14 = DIRECTION ( 'NONE',  ( -3.585403630655970900E-016, -1.000000000000000000, -3.424632426065645600E-016 ) ) ;
#15 = LOCAL_TIME ( 8, 40, 48.00000000000000000, #234 ) ;
#16 = APPROVAL_STATUS ( 'not_yet_approved' ) ;
#17 = EDGE_CURVE ( 'NONE', #59, #142, #221, .T. ) ;
#18 = CIRCLE ( 'NONE', #175, 12.69999999999999900 ) ;
#19 = CARTESIAN_POINT ( 'NONE',  ( -8.517447953478093600, -12.85239968991214400, 0.02116780430289005900 ) ) ;
#20 = ORIENTED_EDGE ( 'NONE', *, *, #13, .F. ) ;
#21 = APPROVAL ( #16, 'UNSPECIFIED' ) ;
#22 = COORDINATED_UNIVERSAL_TIME_OFFSET ( 2, 0, .AHEAD. ) ;
#23 = EDGE_LOOP ( 'NONE', ( #113, #222, #49 ) ) ;
#24 = AXIS2_PLACEMENT_3D ( 'NONE', #94, #71, #181 ) ;
#25 = DIRECTION ( 'NONE',  ( 1.000000000000000000, 0.0000000000000000000, 0.0000000000000000000 ) ) ;
#26 = APPROVAL_STATUS ( 'not_yet_approved' ) ;
#27 = LINE ( 'NONE', #10, #61 ) ;
#28 = EDGE_CURVE ( 'NONE', #135, #41, #136, .T. ) ;
#29 = APPROVAL_STATUS ( 'not_yet_approved' ) ;
#30 = DIRECTION ( 'NONE',  ( 1.000000000000000000, -3.585403630655969900E-016, -3.098518431818169800E-016 ) ) ;
#31 = CARTESIAN_POINT ( 'NONE',  ( 4.258743022756631200, -4.284141997540128700, -0.005307652765956966600 ) ) ;
#32 = CARTESIAN_POINT ( 'NONE',  ( -2.418204525511669100E-012, 4.284141997540499100, -0.005307652766257566500 ) ) ;
#33 = ADVANCED_FACE ( 'NONE', ( #141 ), #122, .T. ) ;
#34 = PRODUCT_RELATED_PRODUCT_CATEGORY ( 'detail', '', ( #73 ) ) ;
#35 = APPROVAL_DATE_TIME ( #127, #21 ) ;
#36 = CLOSED_SHELL ( 'NONE', ( #100, #150, #33, #170, #70 ) ) ;
#37 = APPROVAL_PERSON_ORGANIZATION ( #93, #21, #189 ) ;
#38 = LINE ( 'NONE', #159, #128 ) ;
#39 = AXIS2_PLACEMENT_3D ( 'NONE', #115, #225, #199 ) ;
#40 = PERSON_AND_ORGANIZATION ( #102, #11 ) ;
#41 = VERTEX_POINT ( 'NONE', #147 ) ;
#42 = DIRECTION ( 'NONE',  ( 0.0000000000000000000, 0.0000000000000000000, 1.000000000000000000 ) ) ;
#43 = FACE_OUTER_BOUND ( 'NONE', #118, .T. ) ;
#44 = CARTESIAN_POINT ( 'NONE',  ( 4.996003610813200500E-016, 2.442490654175340100E-015, 3.000000000000000000 ) ) ;
#45 = CARTESIAN_POINT ( 'NONE',  ( -4.258725591587312600, -12.85239968991214500, 0.01592292571098650000 ) ) ;
#46 = DIRECTION ( 'NONE',  ( 0.0000000000000000000, 0.0000000000000000000, 1.000000000000000000 ) ) ;
#47 = CALENDAR_DATE ( 2018, 21, 12 ) ;
#48 = APPROVAL ( #26, 'UNSPECIFIED' ) ;
#49 = ORIENTED_EDGE ( 'NONE', *, *, #125, .T. ) ;
#50 = DATE_TIME_ROLE ( 'creation_date' ) ;
#51 = CARTESIAN_POINT ( 'NONE',  ( -8.517482815807436900, -4.284141997540123400, -6.275270680899677300E-005 ) ) ;
#52 = CARTESIAN_POINT ( 'NONE',  ( 12.77621291974048000, -4.284141997540131400, 0.01042703945711371900 ) ) ;
#53 = CIRCLE ( 'NONE', #24, 12.69999999999999900 ) ;
#54 = AXIS2_PLACEMENT_3D ( 'NONE', #184, #206, #82 ) ;
#55 = VERTEX_POINT ( 'NONE', #162 ) ;
#56 = CARTESIAN_POINT ( 'NONE',  ( 4.258725591585355000, 12.85239968991251700, 0.01592292571128563200 ) ) ;
#57 = CC_DESIGN_PERSON_AND_ORGANIZATION_ASSIGNMENT ( #76, #132, ( #73 ) ) ;
#58 = DATE_AND_TIME ( #5, #92 ) ;
#59 = VERTEX_POINT ( 'NONE', #72 ) ;
#60 = CARTESIAN_POINT ( 'NONE',  ( 12.77616062629272500, -12.85239968991215400, 0.03165755353175824000 ) ) ;
#61 = VECTOR ( 'NONE', #200, 1000.000000000000000 ) ;
#62 = CARTESIAN_POINT ( 'NONE',  ( 4.996003610813200500E-016, 2.442490654175340100E-015, 3.000000000000000000 ) ) ;
#63 = DIRECTION ( 'NONE',  ( 1.000000000000000000, 0.0000000000000000000, 0.0000000000000000000 ) ) ;
#64 = CARTESIAN_POINT ( 'NONE',  ( -1.153991842110836300E-012, -4.284141997540126900, -0.005307652765955647400 ) ) ;
#65 = DIRECTION ( 'NONE',  ( -0.0000000000000000000, -0.0000000000000000000, -1.000000000000000000 ) ) ;
#66 =( LENGTH_UNIT ( ) NAMED_UNIT ( * ) SI_UNIT ( .MILLI., .METRE. ) );
#67 = CARTESIAN_POINT ( 'NONE',  ( -2.426878142891553100E-012, -12.85239968991214900, 0.01592292571098414100 ) ) ;
#68 = CC_DESIGN_DATE_AND_TIME_ASSIGNMENT ( #85, #50, ( #180 ) ) ;
#69 =( NAMED_UNIT ( * ) PLANE_ANGLE_UNIT ( ) SI_UNIT ( $, .RADIAN. ) );
#70 = ADVANCED_FACE ( 'NONE', ( #43 ), #226, .T. ) ;
#71 = DIRECTION ( 'NONE',  ( -0.0000000000000000000, -0.0000000000000000000, -1.000000000000000000 ) ) ;
#72 = CARTESIAN_POINT ( 'NONE',  ( 12.69999999999999900, 2.442490654175340100E-015, 3.000000000000000000 ) ) ;
#73 = PRODUCT ( '110-0295E BK7 pl-cx 25.4 F10000', '110-0295E BK7 pl-cx 25.4 F10000', '', ( #121 ) ) ;
#74 = CARTESIAN_POINT ( 'NONE',  ( -1.157057330000826000E-012, -12.85239968991214900, 0.01592292571128695000 ) ) ;
#75 = PERSON_AND_ORGANIZATION_ROLE ( 'classification_officer' ) ;
#76 = PERSON_AND_ORGANIZATION ( #102, #11 ) ;
#77 = ORIENTED_EDGE ( 'NONE', *, *, #204, .F. ) ;
#78 = CC_DESIGN_PERSON_AND_ORGANIZATION_ASSIGNMENT ( #177, #168, ( #178 ) ) ;
#79 = SHAPE_DEFINITION_REPRESENTATION ( #144, #131 ) ;
#80 = CARTESIAN_POINT ( 'NONE',  ( 12.77616062629273600, 12.85239968991251500, 0.03165755353175824000 ) ) ;
#81 = APPLICATION_CONTEXT ( 'configuration controlled 3d designs of mechanical parts and assemblies' ) ;
#82 = DIRECTION ( 'NONE',  ( 1.000000000000000000, 0.0000000000000000000, 0.0000000000000000000 ) ) ;
#83 =( NAMED_UNIT ( * ) SI_UNIT ( $, .STERADIAN. ) SOLID_ANGLE_UNIT ( ) );
#84 = CARTESIAN_POINT ( 'NONE',  ( -4.258743022758586100, 4.284141997540500800, -0.005307652766255207200 ) ) ;
#85 = DATE_AND_TIME ( #108, #112 ) ;
#86 = ORIENTED_EDGE ( 'NONE', *, *, #13, .T. ) ;
#87 = DESIGN_CONTEXT ( 'detailed design', #81, 'design' ) ;
#88 = DATE_AND_TIME ( #157, #201 ) ;
#89 = DIRECTION ( 'NONE',  ( 0.0000000000000000000, 0.0000000000000000000, 1.000000000000000000 ) ) ;
#90 = AXIS2_PLACEMENT_3D ( 'NONE', #62, #133, #25 ) ;
#91 = PERSON_AND_ORGANIZATION ( #102, #11 ) ;
#92 = LOCAL_TIME ( 8, 40, 48.00000000000000000, #97 ) ;
#93 = PERSON_AND_ORGANIZATION ( #102, #11 ) ;
#94 = CARTESIAN_POINT ( 'NONE',  ( 4.996003610813200500E-016, 2.442490654175340100E-015, 0.01554754595394190100 ) ) ;
#95 = DIRECTION ( 'NONE',  ( 1.000000000000000000, 0.0000000000000000000, 0.0000000000000000000 ) ) ;
#96 = PERSON_AND_ORGANIZATION_ROLE ( 'creator' ) ;
#97 = COORDINATED_UNIVERSAL_TIME_OFFSET ( 2, 0, .AHEAD. ) ;
#98 = ORIENTED_EDGE ( 'NONE', *, *, #138, .T. ) ;
#99 = DIRECTION ( 'NONE',  ( -0.0000000000000000000, -0.0000000000000000000, -1.000000000000000000 ) ) ;
#100 = ADVANCED_FACE ( 'NONE', ( #196 ), #228, .T. ) ;
#101 = APPLICATION_PROTOCOL_DEFINITION ( 'international standard', 'config_control_design', 1994, #117 ) ;
#102 = PERSON ( 'UNSPECIFIED', 'UNSPECIFIED', 'UNSPECIFIED', ('UNSPECIFIED'), ('UNSPECIFIED'), ('UNSPECIFIED') ) ;
#103 = CARTESIAN_POINT ( 'NONE',  ( -1.147841121898655300E-012, 12.85239968991252000, 0.01592292571128695000 ) ) ;
#104 = CIRCLE ( 'NONE', #123, 5187.000000000000000 ) ;
#105 = CARTESIAN_POINT ( 'NONE',  ( -2.416469802035692300E-012, 12.85239968991252000, 0.01592292571098414100 ) ) ;
#106 = AXIS2_PLACEMENT_3D ( 'NONE', #167, #188, #154 ) ;
#107 = CC_DESIGN_PERSON_AND_ORGANIZATION_ASSIGNMENT ( #185, #75, ( #124 ) ) ;
#108 = CALENDAR_DATE ( 2018, 21, 12 ) ;
#109 = ORIENTED_EDGE ( 'NONE', *, *, #161, .F. ) ;
#110 = CARTESIAN_POINT ( 'NONE',  ( 4.996003610813200500E-016, 2.442490654175340100E-015, 0.01554754595394190100 ) ) ;
#111 = DATE_AND_TIME ( #47, #129 ) ;
#112 = LOCAL_TIME ( 8, 40, 48.00000000000000000, #1 ) ;
#113 = ORIENTED_EDGE ( 'NONE', *, *, #3, .T. ) ;
#114 = AXIS2_PLACEMENT_3D ( 'NONE', #119, #42, #146 ) ;
#115 = CARTESIAN_POINT ( 'NONE',  ( 4.996003610813200500E-016, 2.442490654175340100E-015, 0.01554754595394190100 ) ) ;
#116 = CARTESIAN_POINT ( 'NONE',  ( 12.77621291974048400, 4.284141997540493700, 0.01042703945711460600 ) ) ;
#117 = APPLICATION_CONTEXT ( 'configuration controlled 3d designs of mechanical parts and assemblies' ) ;
#118 = EDGE_LOOP ( 'NONE', ( #151, #109 ) ) ;
#119 = CARTESIAN_POINT ( 'NONE',  ( 4.996003610813200500E-016, 2.442490654175340100E-015, 0.01554754595394190100 ) ) ;
#120 = CARTESIAN_POINT ( 'NONE',  ( -8.517447953478082900, 12.85239968991252200, 0.02116780430289005900 ) ) ;
#121 = MECHANICAL_CONTEXT ( 'NONE', #117, 'mechanical' ) ;
#122 =( BOUNDED_SURFACE ( )  B_SPLINE_SURFACE ( 3, 3, ( 
 ( #213, #19, #45, #67 ),
 ( #224, #51, #230, #207 ),
 ( #190, #137, #84, #32 ),
 ( #209, #120, #205, #105 ) ),
 .UNSPECIFIED., .F., .F., .F. ) 
 B_SPLINE_SURFACE_WITH_KNOTS ( ( 4, 4 ),
 ( 4, 4 ),
 ( 0.0000000000000000000, 1.000000000000000000 ),
 ( 0.0000000000000000000, 1.000000000000000000 ),
 .UNSPECIFIED. ) 
 GEOMETRIC_REPRESENTATION_ITEM ( )  RATIONAL_B_SPLINE_SURFACE ( (
 ( 1.000000000000000000, 0.9999994944193146800, 0.9999994944193146800, 1.000000000000000000),
 ( 0.9999979534829750400, 0.9999974479033244500, 0.9999974479033244500, 0.9999979534829750400),
 ( 0.9999979534829750400, 0.9999974479033244500, 0.9999974479033244500, 0.9999979534829750400),
 ( 1.000000000000000000, 0.9999994944193146800, 0.9999994944193146800, 1.000000000000000000) ) ) 
 REPRESENTATION_ITEM ( '' )  SURFACE ( )  );
#123 = AXIS2_PLACEMENT_3D ( 'NONE', #220, #30, #14 ) ;
#124 = SECURITY_CLASSIFICATION ( '', '', #210 ) ;
#125 = EDGE_CURVE ( 'NONE', #217, #55, #53, .T. ) ;
#126 = CARTESIAN_POINT ( 'NONE',  ( -1.150919766456390900E-012, 4.284141997540498200, -0.005307652765954759200 ) ) ;
#127 = DATE_AND_TIME ( #139, #15 ) ;
#128 = VECTOR ( 'NONE', #89, 1000.000000000000000 ) ;
#129 = LOCAL_TIME ( 8, 40, 48.00000000000000000, #134 ) ;
#130 = CIRCLE ( 'NONE', #235, 12.69999999999999900 ) ;
#131 = ADVANCED_BREP_SHAPE_REPRESENTATION ( '110-0295E BK7 pl-cx 25.4 F10000', ( #231, #163 ), #172 ) ;
#132 = PERSON_AND_ORGANIZATION_ROLE ( 'design_owner' ) ;
#133 = DIRECTION ( 'NONE',  ( -0.0000000000000000000, -0.0000000000000000000, -1.000000000000000000 ) ) ;
#134 = COORDINATED_UNIVERSAL_TIME_OFFSET ( 2, 0, .AHEAD. ) ;
#135 = VERTEX_POINT ( 'NONE', #187 ) ;
#136 = CIRCLE ( 'NONE', #197, 12.69999999999999900 ) ;
#137 = CARTESIAN_POINT ( 'NONE',  ( -8.517482815807433400, 4.284141997540501700, -6.275270680810398700E-005 ) ) ;
#138 = EDGE_CURVE ( 'NONE', #41, #142, #27, .T. ) ;
#139 = CALENDAR_DATE ( 2018, 21, 12 ) ;
#140 = CARTESIAN_POINT ( 'NONE',  ( 8.517482815807094100, -4.284141997540129600, -6.275270657170724200E-005 ) ) ;
#141 = FACE_OUTER_BOUND ( 'NONE', #194, .T. ) ;
#142 = VERTEX_POINT ( 'NONE', #166 ) ;
#143 = APPROVAL_DATE_TIME ( #58, #193 ) ;
#144 = PRODUCT_DEFINITION_SHAPE ( 'NONE', 'NONE',  #180 ) ;
#145 = CARTESIAN_POINT ( 'NONE',  ( 8.517447953477743600, -12.85239968991215100, 0.02116780430312734800 ) ) ;
#146 = DIRECTION ( 'NONE',  ( 1.000000000000000000, 0.0000000000000000000, 0.0000000000000000000 ) ) ;
#147 = CARTESIAN_POINT ( 'NONE',  ( -12.69999999999999900, 3.997792089092478900E-015, 0.01554754595394190100 ) ) ;
#148 = APPROVAL_ROLE ( '' ) ;
#149 = APPROVAL_PERSON_ORGANIZATION ( #198, #48, #148 ) ;
#150 = ADVANCED_FACE ( 'NONE', ( #215 ), #212, .T. ) ;
#151 = ORIENTED_EDGE ( 'NONE', *, *, #17, .F. ) ;
#152 = PERSON_AND_ORGANIZATION_ROLE ( 'creator' ) ;
#153 = EDGE_CURVE ( 'NONE', #41, #217, #160, .T. ) ;
#154 = DIRECTION ( 'NONE',  ( 1.000000000000000000, 0.0000000000000000000, -0.0000000000000000000 ) ) ;
#155 = ORIENTED_EDGE ( 'NONE', *, *, #138, .F. ) ;
#156 = DATE_TIME_ROLE ( 'classification_date' ) ;
#157 = CALENDAR_DATE ( 2018, 21, 12 ) ;
#158 = ORIENTED_EDGE ( 'NONE', *, *, #153, .T. ) ;
#159 = CARTESIAN_POINT ( 'NONE',  ( 12.69999999999999900, 2.442490654175340100E-015, 0.01554754595394190100 ) ) ;
#160 = CIRCLE ( 'NONE', #54, 12.69999999999999900 ) ;
#161 = EDGE_CURVE ( 'NONE', #142, #59, #18, .T. ) ;
#162 = CARTESIAN_POINT ( 'NONE',  ( 12.69999999999999900, 2.442490654175340100E-015, 0.01554754595394190100 ) ) ;
#163 = AXIS2_PLACEMENT_3D ( 'NONE', #6, #46, #95 ) ;
#164 = APPLICATION_PROTOCOL_DEFINITION ( 'international standard', 'config_control_design', 1994, #81 ) ;
#165 = CARTESIAN_POINT ( 'NONE',  ( 8.517482815807097700, 4.284141997540495500, -6.275270657081955100E-005 ) ) ;
#166 = CARTESIAN_POINT ( 'NONE',  ( -12.69999999999999900, 3.997792089092478900E-015, 3.000000000000000000 ) ) ;
#167 = CARTESIAN_POINT ( 'NONE',  ( 0.0000000000000000000, 26.11199999999999800, 3.000000000000000000 ) ) ;
#168 = PERSON_AND_ORGANIZATION_ROLE ( 'design_supplier' ) ;
#169 = UNCERTAINTY_MEASURE_WITH_UNIT (LENGTH_MEASURE( 1.000000000000000100E-005 ), #66, 'distance_accuracy_value', 'NONE');
#170 = ADVANCED_FACE ( 'NONE', ( #171 ), #227, .T. ) ;
#171 = FACE_OUTER_BOUND ( 'NONE', #2, .T. ) ;
#172 =( GEOMETRIC_REPRESENTATION_CONTEXT ( 3 ) GLOBAL_UNCERTAINTY_ASSIGNED_CONTEXT ( ( #169 ) ) GLOBAL_UNIT_ASSIGNED_CONTEXT ( ( #66, #69, #83 ) ) REPRESENTATION_CONTEXT ( 'NONE', 'WORKASPACE' ) );
#173 = EDGE_LOOP ( 'NONE', ( #12, #98, #214, #20, #202 ) ) ;
#174 = APPROVAL_PERSON_ORGANIZATION ( #40, #193, #203 ) ;
#175 = AXIS2_PLACEMENT_3D ( 'NONE', #44, #99, #63 ) ;
#176 = DIRECTION ( 'NONE',  ( 1.000000000000000000, 0.0000000000000000000, 0.0000000000000000000 ) ) ;
#177 = PERSON_AND_ORGANIZATION ( #102, #11 ) ;
#178 = PRODUCT_DEFINITION_FORMATION_WITH_SPECIFIED_SOURCE ( 'ANY', '', #73, .NOT_KNOWN. ) ;
#179 = DIRECTION ( 'NONE',  ( 1.000000000000000000, 0.0000000000000000000, 0.0000000000000000000 ) ) ;
#180 = PRODUCT_DEFINITION ( 'UNKNOWN', '', #178, #87 ) ;
#181 = DIRECTION ( 'NONE',  ( 1.000000000000000000, 0.0000000000000000000, 0.0000000000000000000 ) ) ;
#182 = CARTESIAN_POINT ( 'NONE',  ( -1.147895879650933700E-012, 12.69999999995395100, 0.01554754595342027400 ) ) ;
#183 = CC_DESIGN_DATE_AND_TIME_ASSIGNMENT ( #111, #156, ( #124 ) ) ;
#184 = CARTESIAN_POINT ( 'NONE',  ( 4.996003610813200500E-016, 2.442490654175340100E-015, 0.01554754595394190100 ) ) ;
#185 = PERSON_AND_ORGANIZATION ( #102, #11 ) ;
#186 = ORIENTED_EDGE ( 'NONE', *, *, #17, .T. ) ;
#187 = CARTESIAN_POINT ( 'NONE',  ( -1.157002804872766500E-012, -12.69999999995349400, 0.01554754595342027400 ) ) ;
#188 = DIRECTION ( 'NONE',  ( 0.0000000000000000000, 0.0000000000000000000, 1.000000000000000000 ) ) ;
#189 = APPROVAL_ROLE ( '' ) ;
#190 = CARTESIAN_POINT ( 'NONE',  ( -12.77621291973920300, 4.284141997540503500, 0.01042703945687303800 ) ) ;
#191 = APPROVAL_DATE_TIME ( #88, #48 ) ;
#192 = PERSON_AND_ORGANIZATION ( #102, #11 ) ;
#193 = APPROVAL ( #29, 'UNSPECIFIED' ) ;
#194 = EDGE_LOOP ( 'NONE', ( #77, #233, #158 ) ) ;
#195 = DIRECTION ( 'NONE',  ( -0.0000000000000000000, -0.0000000000000000000, -1.000000000000000000 ) ) ;
#196 = FACE_OUTER_BOUND ( 'NONE', #23, .T. ) ;
#197 = AXIS2_PLACEMENT_3D ( 'NONE', #7, #65, #179 ) ;
#198 = PERSON_AND_ORGANIZATION ( #102, #11 ) ;
#199 = DIRECTION ( 'NONE',  ( 1.000000000000000000, 0.0000000000000000000, 0.0000000000000000000 ) ) ;
#200 = DIRECTION ( 'NONE',  ( 0.0000000000000000000, 0.0000000000000000000, 1.000000000000000000 ) ) ;
#201 = LOCAL_TIME ( 8, 40, 48.00000000000000000, #22 ) ;
#202 = ORIENTED_EDGE ( 'NONE', *, *, #125, .F. ) ;
#203 = APPROVAL_ROLE ( '' ) ;
#204 = EDGE_CURVE ( 'NONE', #135, #217, #104, .T. ) ;
#205 = CARTESIAN_POINT ( 'NONE',  ( -4.258725591587301900, 12.85239968991252000, 0.01592292571098650000 ) ) ;
#206 = DIRECTION ( 'NONE',  ( -0.0000000000000000000, -0.0000000000000000000, -1.000000000000000000 ) ) ;
#207 = CARTESIAN_POINT ( 'NONE',  ( -2.423408695939599500E-012, -4.284141997540126000, -0.005307652766258460700 ) ) ;
#208 = CC_DESIGN_APPROVAL ( #21, ( #124 ) ) ;
#209 = CARTESIAN_POINT ( 'NONE',  ( -12.77616062629145000, 12.85239968991252500, 0.03165755353151666900 ) ) ;
#210 = SECURITY_CLASSIFICATION_LEVEL ( 'unclassified' ) ;
#211 = CC_DESIGN_APPROVAL ( #48, ( #180 ) ) ;
#212 = CYLINDRICAL_SURFACE ( 'NONE', #114, 12.69999999999999900 ) ;
#213 = CARTESIAN_POINT ( 'NONE',  ( -12.77616062629146000, -12.85239968991214400, 0.03165755353151666900 ) ) ;
#214 = ORIENTED_EDGE ( 'NONE', *, *, #161, .T. ) ;
#215 = FACE_OUTER_BOUND ( 'NONE', #173, .T. ) ;
#216 = ORIENTED_EDGE ( 'NONE', *, *, #3, .F. ) ;
#217 = VERTEX_POINT ( 'NONE', #182 ) ;
#218 = CC_DESIGN_PERSON_AND_ORGANIZATION_ASSIGNMENT ( #192, #96, ( #178 ) ) ;
#219 = CC_DESIGN_SECURITY_CLASSIFICATION ( #124, ( #178 ) ) ;
#220 = CARTESIAN_POINT ( 'NONE',  ( 4.547473508864640200E-013, 4.547473508864640200E-013, 5187.000000000000000 ) ) ;
#221 = CIRCLE ( 'NONE', #90, 12.69999999999999900 ) ;
#222 = ORIENTED_EDGE ( 'NONE', *, *, #204, .T. ) ;
#223 = CC_DESIGN_PERSON_AND_ORGANIZATION_ASSIGNMENT ( #91, #152, ( #180 ) ) ;
#224 = CARTESIAN_POINT ( 'NONE',  ( -12.77621291973920800, -4.284141997540121600, 0.01042703945687214700 ) ) ;
#225 = DIRECTION ( 'NONE',  ( 0.0000000000000000000, 0.0000000000000000000, 1.000000000000000000 ) ) ;
#226 = PLANE ( 'NONE',  #106 ) ;
#227 = CYLINDRICAL_SURFACE ( 'NONE', #39, 12.69999999999999900 ) ;
#228 =( BOUNDED_SURFACE ( )  B_SPLINE_SURFACE ( 3, 3, ( 
 ( #74, #4, #145, #60 ),
 ( #64, #31, #140, #52 ),
 ( #126, #9, #165, #116 ),
 ( #103, #56, #8, #80 ) ),
 .UNSPECIFIED., .F., .F., .F. ) 
 B_SPLINE_SURFACE_WITH_KNOTS ( ( 4, 4 ),
 ( 4, 4 ),
 ( 0.0000000000000000000, 1.000000000000000000 ),
 ( 0.0000000000000000000, 1.000000000000000000 ),
 .UNSPECIFIED. ) 
 GEOMETRIC_REPRESENTATION_ITEM ( )  RATIONAL_B_SPLINE_SURFACE ( (
 ( 1.000000000000000000, 0.9999994944193146800, 0.9999994944193146800, 1.000000000000000000),
 ( 0.9999979534829750400, 0.9999974479033244500, 0.9999974479033244500, 0.9999979534829750400),
 ( 0.9999979534829750400, 0.9999974479033244500, 0.9999974479033244500, 0.9999979534829750400),
 ( 1.000000000000000000, 0.9999994944193146800, 0.9999994944193146800, 1.000000000000000000) ) ) 
 REPRESENTATION_ITEM ( '' )  SURFACE ( )  );
#229 = ORIENTED_EDGE ( 'NONE', *, *, #28, .F. ) ;
#230 = CARTESIAN_POINT ( 'NONE',  ( -4.258743022758591400, -4.284141997540124300, -0.005307652766256099700 ) ) ;
#231 = MANIFOLD_SOLID_BREP ( 'Imported1', #36 ) ;
#232 = CC_DESIGN_APPROVAL ( #193, ( #178 ) ) ;
#233 = ORIENTED_EDGE ( 'NONE', *, *, #28, .T. ) ;
#234 = COORDINATED_UNIVERSAL_TIME_OFFSET ( 2, 0, .AHEAD. ) ;
#235 = AXIS2_PLACEMENT_3D ( 'NONE', #110, #195, #176 ) ;
ENDSEC;
END-ISO-10303-21;
