ISO-10303-21;
HEADER;
FILE_DESCRIPTION (( 'STEP AP203' ),
    '1' );
FILE_NAME ('110-0289E BK7 pl-cx 25.4 F5000.STEP',
    '2018-12-21T06:41:09',
    ( '' ),
    ( '' ),
    'SwSTEP 2.0',
    'SolidWorks 2017',
    '' );
FILE_SCHEMA (( 'CONFIG_CONTROL_DESIGN' ));
ENDSEC;

DATA;
#1 = CALENDAR_DATE ( 2018, 21, 12 ) ;
#2 = CC_DESIGN_PERSON_AND_ORGANIZATION_ASSIGNMENT ( #147, #205, ( #224 ) ) ;
#3 = PERSON ( 'UNSPECIFIED', 'UNSPECIFIED', 'UNSPECIFIED', ('UNSPECIFIED'), ('UNSPECIFIED'), ('UNSPECIFIED') ) ;
#4 = CC_DESIGN_APPROVAL ( #93, ( #224 ) ) ;
#5 = LINE ( 'NONE', #81, #150 ) ;
#6 = ORIENTED_EDGE ( 'NONE', *, *, #159, .F. ) ;
#7 = PRODUCT_RELATED_PRODUCT_CATEGORY ( 'detail', '', ( #222 ) ) ;
#8 = CARTESIAN_POINT ( 'NONE',  ( -8.517531239030921200, -4.284167977233053600, -0.0001254986405499827800 ) ) ;
#9 = DATE_AND_TIME ( #227, #96 ) ;
#10 = CIRCLE ( 'NONE', #111, 12.69999999999999900 ) ;
#11 = CARTESIAN_POINT ( 'NONE',  ( -4.258772076520991800, 4.284167977233243700, -0.01061337184399481700 ) ) ;
#12 = APPLICATION_CONTEXT ( 'configuration controlled 3d designs of mechanical parts and assemblies' ) ;
#13 = APPROVAL_ROLE ( '' ) ;
#14 = CARTESIAN_POINT ( 'NONE',  ( 8.517531239030425600, 4.284167977233238400, -0.0001254986407602163000 ) ) ;
#15 = CC_DESIGN_APPROVAL ( #207, ( #82 ) ) ;
#16 = PERSON_AND_ORGANIZATION_ROLE ( 'creator' ) ;
#17 = ORIENTED_EDGE ( 'NONE', *, *, #44, .T. ) ;
#18 = DIRECTION ( 'NONE',  ( 1.000000000000000000, 0.0000000000000000000, 0.0000000000000000000 ) ) ;
#19 = APPLICATION_PROTOCOL_DEFINITION ( 'international standard', 'config_control_design', 1994, #12 ) ;
#20 = VECTOR ( 'NONE', #52, 1000.000000000000000 ) ;
#21 = LINE ( 'NONE', #160, #20 ) ;
#22 = ORIENTED_EDGE ( 'NONE', *, *, #124, .T. ) ;
#23 = COORDINATED_UNIVERSAL_TIME_OFFSET ( 2, 0, .AHEAD. ) ;
#24 = SECURITY_CLASSIFICATION ( '', '', #230 ) ;
#25 = CARTESIAN_POINT ( 'NONE',  ( 4.996003610813200500E-016, 2.442490654175340100E-015, 3.000000000000000000 ) ) ;
#26 = APPROVAL_DATE_TIME ( #9, #214 ) ;
#27 = FACE_OUTER_BOUND ( 'NONE', #73, .T. ) ;
#28 = CARTESIAN_POINT ( 'NONE',  ( -12.69999999999999900, 3.997792089092478900E-015, 3.000000000000000000 ) ) ;
#29 = EDGE_CURVE ( 'NONE', #194, #228, #40, .T. ) ;
#30 = CARTESIAN_POINT ( 'NONE',  ( 4.996003610813200500E-016, 2.442490654175340100E-015, 0.03108923796081740000 ) ) ;
#31 = DIRECTION ( 'NONE',  ( -0.0000000000000000000, -0.0000000000000000000, -1.000000000000000000 ) ) ;
#32 = CARTESIAN_POINT ( 'NONE',  ( 8.517531239030422100, -4.284167977233059900, -0.0001254986407611107900 ) ) ;
#33 = CALENDAR_DATE ( 2018, 21, 12 ) ;
#34 = CARTESIAN_POINT ( 'NONE',  ( 4.547473508864640200E-013, 2.273736754432320100E-013, 2594.000000000000000 ) ) ;
#35 = DATE_TIME_ROLE ( 'classification_date' ) ;
#36 = DIRECTION ( 'NONE',  ( -0.0000000000000000000, -0.0000000000000000000, -1.000000000000000000 ) ) ;
#37 = CARTESIAN_POINT ( 'NONE',  ( -3.442363251752014900E-013, 12.85239876031393200, 0.03183985498633745700 ) ) ;
#38 = ORIENTED_EDGE ( 'NONE', *, *, #29, .T. ) ;
#39 = CALENDAR_DATE ( 2018, 21, 12 ) ;
#40 = CIRCLE ( 'NONE', #90, 12.69999999999999900 ) ;
#41 = ORIENTED_EDGE ( 'NONE', *, *, #29, .F. ) ;
#42 = CC_DESIGN_DATE_AND_TIME_ASSIGNMENT ( #145, #35, ( #24 ) ) ;
#43 = AXIS2_PLACEMENT_3D ( 'NONE', #189, #158, #101 ) ;
#44 = EDGE_CURVE ( 'NONE', #130, #102, #107, .T. ) ;
#45 = DIRECTION ( 'NONE',  ( 0.0000000000000000000, 0.0000000000000000000, 1.000000000000000000 ) ) ;
#46 = CARTESIAN_POINT ( 'NONE',  ( -8.517391842266754100, -12.85239876031374200, 0.04232755654715161800 ) ) ;
#47 = CARTESIAN_POINT ( 'NONE',  ( -12.77604256518237100, -12.85239876031374400, 0.06330289606371053400 ) ) ;
#48 = CARTESIAN_POINT ( 'NONE',  ( -12.77625165958889800, 4.284167977233245500, 0.02085018416119737200 ) ) ;
#49 = DIRECTION ( 'NONE',  ( -3.584712535121920700E-016, -1.000000000000000000, -3.423972319584137200E-016 ) ) ;
#50 = EDGE_CURVE ( 'NONE', #148, #102, #57, .T. ) ;
#51 = CARTESIAN_POINT ( 'NONE',  ( 4.996003610813200500E-016, 2.442490654175340100E-015, 0.03108923796081740000 ) ) ;
#52 = DIRECTION ( 'NONE',  ( 0.0000000000000000000, 0.0000000000000000000, 1.000000000000000000 ) ) ;
#53 = ADVANCED_BREP_SHAPE_REPRESENTATION ( '110-0289E BK7 pl-cx 25.4 F5000', ( #110, #178 ), #142 ) ;
#54 = ORIENTED_EDGE ( 'NONE', *, *, #159, .T. ) ;
#55 = PERSON_AND_ORGANIZATION ( #3, #116 ) ;
#56 = FACE_OUTER_BOUND ( 'NONE', #183, .T. ) ;
#57 = CIRCLE ( 'NONE', #174, 2594.000000000000000 ) ;
#58 = COORDINATED_UNIVERSAL_TIME_OFFSET ( 2, 0, .AHEAD. ) ;
#59 = PERSON_AND_ORGANIZATION ( #3, #116 ) ;
#60 = CARTESIAN_POINT ( 'NONE',  ( -9.818534874028726100E-013, 4.284167977233241100, -0.01061337184399717600 ) ) ;
#61 = CARTESIAN_POINT ( 'NONE',  ( 12.69999999999999900, 2.442490654175340100E-015, 0.03108923796081740000 ) ) ;
#62 = CARTESIAN_POINT ( 'NONE',  ( -8.517531239030915900, 4.284167977233244600, -0.0001254986405490849200 ) ) ;
#63 = ORIENTED_EDGE ( 'NONE', *, *, #146, .T. ) ;
#64 = DIRECTION ( 'NONE',  ( 1.000000000000000000, 0.0000000000000000000, 0.0000000000000000000 ) ) ;
#65 = CARTESIAN_POINT ( 'NONE',  ( 0.0000000000000000000, 0.0000000000000000000, 0.0000000000000000000 ) ) ;
#66 = ORIENTED_EDGE ( 'NONE', *, *, #146, .F. ) ;
#67 = PERSON_AND_ORGANIZATION ( #3, #116 ) ;
#68 = CC_DESIGN_SECURITY_CLASSIFICATION ( #24, ( #224 ) ) ;
#69 = CC_DESIGN_PERSON_AND_ORGANIZATION_ASSIGNMENT ( #67, #234, ( #222 ) ) ;
#70 = COORDINATED_UNIVERSAL_TIME_OFFSET ( 2, 0, .AHEAD. ) ;
#71 = PERSON_AND_ORGANIZATION ( #3, #116 ) ;
#72 = CC_DESIGN_DATE_AND_TIME_ASSIGNMENT ( #127, #122, ( #82 ) ) ;
#73 = EDGE_LOOP ( 'NONE', ( #87, #108, #63 ) ) ;
#74 = DIRECTION ( 'NONE',  ( 1.000000000000000000, 0.0000000000000000000, 0.0000000000000000000 ) ) ;
#75 = DESIGN_CONTEXT ( 'detailed design', #12, 'design' ) ;
#76 = DIRECTION ( 'NONE',  ( -0.0000000000000000000, -0.0000000000000000000, -1.000000000000000000 ) ) ;
#77 = CARTESIAN_POINT ( 'NONE',  ( -9.905271047827568500E-013, -12.85239876031374900, 0.03183985498681780200 ) ) ;
#78 = ORIENTED_EDGE ( 'NONE', *, *, #124, .F. ) ;
#79 = APPROVAL_ROLE ( '' ) ;
#80 = CARTESIAN_POINT ( 'NONE',  ( -9.870576578308034400E-013, -4.284167977233055400, -0.01061337184399807100 ) ) ;
#81 = CARTESIAN_POINT ( 'NONE',  ( 12.69999999999999900, 2.442490654175340100E-015, 0.03108923796081740000 ) ) ;
#82 = PRODUCT_DEFINITION ( 'UNKNOWN', '', #224, #75 ) ;
#83 = DIRECTION ( 'NONE',  ( 1.000000000000000000, 0.0000000000000000000, 0.0000000000000000000 ) ) ;
#84 = APPROVAL_PERSON_ORGANIZATION ( #94, #93, #13 ) ;
#85 = CARTESIAN_POINT ( 'NONE',  ( 8.517391842266260200, 12.85239876031392600, 0.04232755654694048100 ) ) ;
#86 = AXIS2_PLACEMENT_3D ( 'NONE', #51, #36, #64 ) ;
#87 = ORIENTED_EDGE ( 'NONE', *, *, #216, .T. ) ;
#88 = ORIENTED_EDGE ( 'NONE', *, *, #109, .T. ) ;
#89 = PERSON_AND_ORGANIZATION ( #3, #116 ) ;
#90 = AXIS2_PLACEMENT_3D ( 'NONE', #25, #151, #184 ) ;
#91 = ADVANCED_FACE ( 'NONE', ( #218 ), #180, .T. ) ;
#92 = FACE_OUTER_BOUND ( 'NONE', #144, .T. ) ;
#93 = APPROVAL ( #138, 'UNSPECIFIED' ) ;
#94 = PERSON_AND_ORGANIZATION ( #3, #116 ) ;
#95 = DIRECTION ( 'NONE',  ( 1.000000000000000000, -3.584712535121920200E-016, -3.097921184626219800E-016 ) ) ;
#96 = LOCAL_TIME ( 8, 41, 9.000000000000000000, #169 ) ;
#97 = CYLINDRICAL_SURFACE ( 'NONE', #114, 12.69999999999999900 ) ;
#98 = CARTESIAN_POINT ( 'NONE',  ( -3.442911882850810600E-013, 12.70000000000628900, 0.03108923796086515000 ) ) ;
#99 = DIRECTION ( 'NONE',  ( 1.000000000000000000, -8.881784197001252300E-016, 0.0000000000000000000 ) ) ;
#100 = CARTESIAN_POINT ( 'NONE',  ( 12.77625165958882300, -4.284167977233060800, 0.02085018416098580200 ) ) ;
#101 = DIRECTION ( 'NONE',  ( 1.000000000000000000, 0.0000000000000000000, 0.0000000000000000000 ) ) ;
#102 = VERTEX_POINT ( 'NONE', #98 ) ;
#103 = DIRECTION ( 'NONE',  ( 0.0000000000000000000, 0.0000000000000000000, 1.000000000000000000 ) ) ;
#104 = APPLICATION_PROTOCOL_DEFINITION ( 'international standard', 'config_control_design', 1994, #176 ) ;
#105 = CARTESIAN_POINT ( 'NONE',  ( 4.996003610813200500E-016, 2.442490654175340100E-015, 0.03108923796081740000 ) ) ;
#106 = CARTESIAN_POINT ( 'NONE',  ( 12.77604256518229400, 12.85239876031392800, 0.06330289606349984200 ) ) ;
#107 = CIRCLE ( 'NONE', #179, 12.69999999999999900 ) ;
#108 = ORIENTED_EDGE ( 'NONE', *, *, #50, .T. ) ;
#109 = EDGE_CURVE ( 'NONE', #120, #228, #5, .T. ) ;
#110 = MANIFOLD_SOLID_BREP ( 'Imported1', #131 ) ;
#111 = AXIS2_PLACEMENT_3D ( 'NONE', #105, #235, #83 ) ;
#112 = ADVANCED_FACE ( 'NONE', ( #153 ), #133, .T. ) ;
#113 = CIRCLE ( 'NONE', #168, 12.69999999999999900 ) ;
#114 = AXIS2_PLACEMENT_3D ( 'NONE', #208, #103, #18 ) ;
#115 = DATE_AND_TIME ( #33, #143 ) ;
#116 = ORGANIZATION ( 'UNSPECIFIED', 'UNSPECIFIED', '' ) ;
#117 = CARTESIAN_POINT ( 'NONE',  ( -4.258772076520997100, -4.284167977233054500, -0.01061337184399570700 ) ) ;
#118 = MECHANICAL_CONTEXT ( 'NONE', #176, 'mechanical' ) ;
#119 = APPROVAL_STATUS ( 'not_yet_approved' ) ;
#120 = VERTEX_POINT ( 'NONE', #61 ) ;
#121 = CARTESIAN_POINT ( 'NONE',  ( 4.258772076520083200, 4.284167977233239300, -0.01061337184447882400 ) ) ;
#122 = DATE_TIME_ROLE ( 'creation_date' ) ;
#123 = CARTESIAN_POINT ( 'NONE',  ( 12.69999999999999900, 2.442490654175340100E-015, 3.000000000000000000 ) ) ;
#124 = EDGE_CURVE ( 'NONE', #228, #194, #113, .T. ) ;
#125 = PERSON_AND_ORGANIZATION_ROLE ( 'creator' ) ;
#126 =( NAMED_UNIT ( * ) SI_UNIT ( $, .STERADIAN. ) SOLID_ANGLE_UNIT ( ) );
#127 = DATE_AND_TIME ( #136, #129 ) ;
#128 = CIRCLE ( 'NONE', #134, 12.69999999999999900 ) ;
#129 = LOCAL_TIME ( 8, 41, 9.000000000000000000, #58 ) ;
#130 = VERTEX_POINT ( 'NONE', #152 ) ;
#131 = CLOSED_SHELL ( 'NONE', ( #149, #221, #91, #199, #112 ) ) ;
#132 = DIRECTION ( 'NONE',  ( 0.0000000000000000000, 0.0000000000000000000, 1.000000000000000000 ) ) ;
#133 = PLANE ( 'NONE',  #171 ) ;
#134 = AXIS2_PLACEMENT_3D ( 'NONE', #30, #31, #99 ) ;
#135 = DIRECTION ( 'NONE',  ( 1.000000000000000000, 0.0000000000000000000, -0.0000000000000000000 ) ) ;
#136 = CALENDAR_DATE ( 2018, 21, 12 ) ;
#137 = SHAPE_DEFINITION_REPRESENTATION ( #195, #53 ) ;
#138 = APPROVAL_STATUS ( 'not_yet_approved' ) ;
#139 = CARTESIAN_POINT ( 'NONE',  ( -3.503924434095806800E-013, -4.284167977233056300, -0.01061337184447840000 ) ) ;
#140 = CARTESIAN_POINT ( 'NONE',  ( 12.77625165958882600, 4.284167977233235700, 0.02085018416098669700 ) ) ;
#141 = PERSON_AND_ORGANIZATION_ROLE ( 'classification_officer' ) ;
#142 =( GEOMETRIC_REPRESENTATION_CONTEXT ( 3 ) GLOBAL_UNCERTAINTY_ASSIGNED_CONTEXT ( ( #167 ) ) GLOBAL_UNIT_ASSIGNED_CONTEXT ( ( #210, #233, #126 ) ) REPRESENTATION_CONTEXT ( 'NONE', 'WORKASPACE' ) );
#143 = LOCAL_TIME ( 8, 41, 9.000000000000000000, #70 ) ;
#144 = EDGE_LOOP ( 'NONE', ( #193, #202, #38, #163, #66 ) ) ;
#145 = DATE_AND_TIME ( #1, #165 ) ;
#146 = EDGE_CURVE ( 'NONE', #102, #120, #128, .T. ) ;
#147 = PERSON_AND_ORGANIZATION ( #3, #116 ) ;
#148 = VERTEX_POINT ( 'NONE', #226 ) ;
#149 = ADVANCED_FACE ( 'NONE', ( #27 ), #209, .T. ) ;
#150 = VECTOR ( 'NONE', #45, 1000.000000000000000 ) ;
#151 = DIRECTION ( 'NONE',  ( -0.0000000000000000000, -0.0000000000000000000, -1.000000000000000000 ) ) ;
#152 = CARTESIAN_POINT ( 'NONE',  ( -12.69999999999999900, 3.997792089092478900E-015, 0.03108923796081740000 ) ) ;
#153 = FACE_OUTER_BOUND ( 'NONE', #188, .T. ) ;
#154 = CARTESIAN_POINT ( 'NONE',  ( 4.996003610813200500E-016, 2.442490654175340100E-015, 3.000000000000000000 ) ) ;
#155 = CARTESIAN_POINT ( 'NONE',  ( 4.258702378032316100, -12.85239876031374700, 0.03183985498633613900 ) ) ;
#156 = CARTESIAN_POINT ( 'NONE',  ( -3.473209412794696200E-013, 4.284167977233240200, -0.01061337184447750700 ) ) ;
#157 = CARTESIAN_POINT ( 'NONE',  ( -4.258702378033240700, -12.85239876031374400, 0.03183985498682016800 ) ) ;
#158 = DIRECTION ( 'NONE',  ( 0.0000000000000000000, 0.0000000000000000000, 1.000000000000000000 ) ) ;
#159 = EDGE_CURVE ( 'NONE', #148, #130, #162, .T. ) ;
#160 = CARTESIAN_POINT ( 'NONE',  ( -12.69999999999999900, 3.997792089092478900E-015, 0.03108923796081740000 ) ) ;
#161 = DIRECTION ( 'NONE',  ( 1.000000000000000000, 0.0000000000000000000, 0.0000000000000000000 ) ) ;
#162 = CIRCLE ( 'NONE', #86, 12.69999999999999900 ) ;
#163 = ORIENTED_EDGE ( 'NONE', *, *, #109, .F. ) ;
#164 = APPROVAL_PERSON_ORGANIZATION ( #215, #214, #232 ) ;
#165 = LOCAL_TIME ( 8, 41, 9.000000000000000000, #201 ) ;
#166 = APPROVAL_PERSON_ORGANIZATION ( #59, #207, #79 ) ;
#167 = UNCERTAINTY_MEASURE_WITH_UNIT (LENGTH_MEASURE( 1.000000000000000100E-005 ), #210, 'distance_accuracy_value', 'NONE');
#168 = AXIS2_PLACEMENT_3D ( 'NONE', #154, #76, #203 ) ;
#169 = COORDINATED_UNIVERSAL_TIME_OFFSET ( 2, 0, .AHEAD. ) ;
#170 = CARTESIAN_POINT ( 'NONE',  ( 8.517391842266249600, -12.85239876031374900, 0.04232755654694048100 ) ) ;
#171 = AXIS2_PLACEMENT_3D ( 'NONE', #187, #132, #135 ) ;
#172 = APPROVAL_DATE_TIME ( #115, #93 ) ;
#173 = CARTESIAN_POINT ( 'NONE',  ( 4.258772076520079600, -4.284167977233059000, -0.01061337184447971700 ) ) ;
#174 = AXIS2_PLACEMENT_3D ( 'NONE', #34, #95, #49 ) ;
#175 = CARTESIAN_POINT ( 'NONE',  ( -12.77625165958890300, -4.284167977233051000, 0.02085018416119647700 ) ) ;
#176 = APPLICATION_CONTEXT ( 'configuration controlled 3d designs of mechanical parts and assemblies' ) ;
#177 = ORIENTED_EDGE ( 'NONE', *, *, #216, .F. ) ;
#178 = AXIS2_PLACEMENT_3D ( 'NONE', #65, #211, #161 ) ;
#179 = AXIS2_PLACEMENT_3D ( 'NONE', #181, #186, #74 ) ;
#180 =( BOUNDED_SURFACE ( )  B_SPLINE_SURFACE ( 3, 3, ( 
 ( #47, #46, #157, #77 ),
 ( #175, #8, #117, #80 ),
 ( #48, #62, #11, #60 ),
 ( #231, #223, #225, #204 ) ),
 .UNSPECIFIED., .F., .F., .F. ) 
 B_SPLINE_SURFACE_WITH_KNOTS ( ( 4, 4 ),
 ( 4, 4 ),
 ( 0.0000000000000000000, 1.000000000000000000 ),
 ( 0.0000000000000000000, 1.000000000000000000 ),
 .UNSPECIFIED. ) 
 GEOMETRIC_REPRESENTATION_ITEM ( )  RATIONAL_B_SPLINE_SURFACE ( (
 ( 1.000000000000000000, 0.9999979784454525700, 0.9999979784454525700, 1.000000000000000000),
 ( 0.9999918170508901300, 0.9999897955128850300, 0.9999897955128850300, 0.9999918170508901300),
 ( 0.9999918170508901300, 0.9999897955128850300, 0.9999897955128850300, 0.9999918170508901300),
 ( 1.000000000000000000, 0.9999979784454525700, 0.9999979784454525700, 1.000000000000000000) ) ) 
 REPRESENTATION_ITEM ( '' )  SURFACE ( )  );
#181 = CARTESIAN_POINT ( 'NONE',  ( 4.996003610813200500E-016, 2.442490654175340100E-015, 0.03108923796081740000 ) ) ;
#182 = CARTESIAN_POINT ( 'NONE',  ( -3.534507561636979700E-013, -12.85239876031374900, 0.03183985498633745700 ) ) ;
#183 = EDGE_LOOP ( 'NONE', ( #192, #6, #177, #88, #22 ) ) ;
#184 = DIRECTION ( 'NONE',  ( 1.000000000000000000, 0.0000000000000000000, 0.0000000000000000000 ) ) ;
#185 = APPROVAL_STATUS ( 'not_yet_approved' ) ;
#186 = DIRECTION ( 'NONE',  ( -0.0000000000000000000, -0.0000000000000000000, -1.000000000000000000 ) ) ;
#187 = CARTESIAN_POINT ( 'NONE',  ( 0.0000000000000000000, 26.11199999999999800, 3.000000000000000000 ) ) ;
#188 = EDGE_LOOP ( 'NONE', ( #78, #41 ) ) ;
#189 = CARTESIAN_POINT ( 'NONE',  ( 4.996003610813200500E-016, 2.442490654175340100E-015, 0.03108923796081740000 ) ) ;
#190 = CC_DESIGN_APPROVAL ( #214, ( #24 ) ) ;
#191 = CARTESIAN_POINT ( 'NONE',  ( 4.258702378032325000, 12.85239876031392800, 0.03183985498633613900 ) ) ;
#192 = ORIENTED_EDGE ( 'NONE', *, *, #212, .F. ) ;
#193 = ORIENTED_EDGE ( 'NONE', *, *, #44, .F. ) ;
#194 = VERTEX_POINT ( 'NONE', #28 ) ;
#195 = PRODUCT_DEFINITION_SHAPE ( 'NONE', 'NONE',  #82 ) ;
#196 = CC_DESIGN_PERSON_AND_ORGANIZATION_ASSIGNMENT ( #89, #125, ( #82 ) ) ;
#197 = CYLINDRICAL_SURFACE ( 'NONE', #43, 12.69999999999999900 ) ;
#198 = LOCAL_TIME ( 8, 41, 9.000000000000000000, #23 ) ;
#199 = ADVANCED_FACE ( 'NONE', ( #56 ), #197, .T. ) ;
#200 = CC_DESIGN_PERSON_AND_ORGANIZATION_ASSIGNMENT ( #55, #141, ( #24 ) ) ;
#201 = COORDINATED_UNIVERSAL_TIME_OFFSET ( 2, 0, .AHEAD. ) ;
#202 = ORIENTED_EDGE ( 'NONE', *, *, #212, .T. ) ;
#203 = DIRECTION ( 'NONE',  ( 1.000000000000000000, 0.0000000000000000000, 0.0000000000000000000 ) ) ;
#204 = CARTESIAN_POINT ( 'NONE',  ( -9.801187639268960100E-013, 12.85239876031393200, 0.03183985498681778800 ) ) ;
#205 = PERSON_AND_ORGANIZATION_ROLE ( 'design_supplier' ) ;
#206 = ORIENTED_EDGE ( 'NONE', *, *, #50, .F. ) ;
#207 = APPROVAL ( #119, 'UNSPECIFIED' ) ;
#208 = CARTESIAN_POINT ( 'NONE',  ( 4.996003610813200500E-016, 2.442490654175340100E-015, 0.03108923796081740000 ) ) ;
#209 =( BOUNDED_SURFACE ( )  B_SPLINE_SURFACE ( 3, 3, ( 
 ( #182, #155, #170, #229 ),
 ( #139, #173, #32, #100 ),
 ( #156, #121, #14, #140 ),
 ( #37, #191, #85, #106 ) ),
 .UNSPECIFIED., .F., .F., .F. ) 
 B_SPLINE_SURFACE_WITH_KNOTS ( ( 4, 4 ),
 ( 4, 4 ),
 ( 0.0000000000000000000, 1.000000000000000000 ),
 ( 0.0000000000000000000, 1.000000000000000000 ),
 .UNSPECIFIED. ) 
 GEOMETRIC_REPRESENTATION_ITEM ( )  RATIONAL_B_SPLINE_SURFACE ( (
 ( 1.000000000000000000, 0.9999979784454525700, 0.9999979784454525700, 1.000000000000000000),
 ( 0.9999918170508901300, 0.9999897955128850300, 0.9999897955128850300, 0.9999918170508901300),
 ( 0.9999918170508901300, 0.9999897955128850300, 0.9999897955128850300, 0.9999918170508901300),
 ( 1.000000000000000000, 0.9999979784454525700, 0.9999979784454525700, 1.000000000000000000) ) ) 
 REPRESENTATION_ITEM ( '' )  SURFACE ( )  );
#210 =( LENGTH_UNIT ( ) NAMED_UNIT ( * ) SI_UNIT ( .MILLI., .METRE. ) );
#211 = DIRECTION ( 'NONE',  ( 0.0000000000000000000, 0.0000000000000000000, 1.000000000000000000 ) ) ;
#212 = EDGE_CURVE ( 'NONE', #130, #194, #21, .T. ) ;
#213 = DATE_AND_TIME ( #39, #198 ) ;
#214 = APPROVAL ( #185, 'UNSPECIFIED' ) ;
#215 = PERSON_AND_ORGANIZATION ( #3, #116 ) ;
#216 = EDGE_CURVE ( 'NONE', #120, #148, #10, .T. ) ;
#217 = APPROVAL_DATE_TIME ( #213, #207 ) ;
#218 = FACE_OUTER_BOUND ( 'NONE', #219, .T. ) ;
#219 = EDGE_LOOP ( 'NONE', ( #206, #54, #17 ) ) ;
#220 = CC_DESIGN_PERSON_AND_ORGANIZATION_ASSIGNMENT ( #71, #16, ( #224 ) ) ;
#221 = ADVANCED_FACE ( 'NONE', ( #92 ), #97, .T. ) ;
#222 = PRODUCT ( '110-0289E BK7 pl-cx 25.4 F5000', '110-0289E BK7 pl-cx 25.4 F5000', '', ( #118 ) ) ;
#223 = CARTESIAN_POINT ( 'NONE',  ( -8.517391842266743400, 12.85239876031393400, 0.04232755654715161800 ) ) ;
#224 = PRODUCT_DEFINITION_FORMATION_WITH_SPECIFIED_SOURCE ( 'ANY', '', #222, .NOT_KNOWN. ) ;
#225 = CARTESIAN_POINT ( 'NONE',  ( -4.258702378033230000, 12.85239876031393200, 0.03183985498682015400 ) ) ;
#226 = CARTESIAN_POINT ( 'NONE',  ( -3.533963581242952000E-013, -12.70000000000606000, 0.03108923796086515000 ) ) ;
#227 = CALENDAR_DATE ( 2018, 21, 12 ) ;
#228 = VERTEX_POINT ( 'NONE', #123 ) ;
#229 = CARTESIAN_POINT ( 'NONE',  ( 12.77604256518228500, -12.85239876031375400, 0.06330289606349984200 ) ) ;
#230 = SECURITY_CLASSIFICATION_LEVEL ( 'unclassified' ) ;
#231 = CARTESIAN_POINT ( 'NONE',  ( -12.77604256518236000, 12.85239876031393700, 0.06330289606371053400 ) ) ;
#232 = APPROVAL_ROLE ( '' ) ;
#233 =( NAMED_UNIT ( * ) PLANE_ANGLE_UNIT ( ) SI_UNIT ( $, .RADIAN. ) );
#234 = PERSON_AND_ORGANIZATION_ROLE ( 'design_owner' ) ;
#235 = DIRECTION ( 'NONE',  ( -0.0000000000000000000, -0.0000000000000000000, -1.000000000000000000 ) ) ;
ENDSEC;
END-ISO-10303-21;
