ISO-10303-21;
HEADER;
FILE_DESCRIPTION (( 'STEP AP203' ),
    '1' );
FILE_NAME ('110-0285E BK7 pl-cx 25.4 F4000.STEP',
    '2018-12-21T06:42:39',
    ( '' ),
    ( '' ),
    'SwSTEP 2.0',
    'SolidWorks 2017',
    '' );
FILE_SCHEMA (( 'CONFIG_CONTROL_DESIGN' ));
ENDSEC;

DATA;
#1 = LINE ( 'NONE', #183, #30 ) ;
#2 = CARTESIAN_POINT ( 'NONE',  ( 4.258793881738045100, 4.284187475290166500, -0.01326809901887105400 ) ) ;
#3 = APPROVAL_STATUS ( 'not_yet_approved' ) ;
#4 =( LENGTH_UNIT ( ) NAMED_UNIT ( * ) SI_UNIT ( .MILLI., .METRE. ) );
#5 = PERSON_AND_ORGANIZATION_ROLE ( 'classification_officer' ) ;
#6 = PRODUCT_DEFINITION ( 'UNKNOWN', '', #146, #207 ) ;
#7 = DATE_AND_TIME ( #99, #116 ) ;
#8 = DATE_AND_TIME ( #171, #232 ) ;
#9 = APPROVAL ( #78, 'UNSPECIFIED' ) ;
#10 = CARTESIAN_POINT ( 'NONE',  ( -12.69999999999999900, 3.997792089092478900E-015, 3.000000000000000000 ) ) ;
#11 = DIRECTION ( 'NONE',  ( 1.000000000000000000, 0.0000000000000000000, 0.0000000000000000000 ) ) ;
#12 = CIRCLE ( 'NONE', #59, 12.69999999999999900 ) ;
#13 = ORIENTED_EDGE ( 'NONE', *, *, #148, .F. ) ;
#14 = DIRECTION ( 'NONE',  ( 1.000000000000000000, 0.0000000000000000000, 0.0000000000000000000 ) ) ;
#15 = CARTESIAN_POINT ( 'NONE',  ( 4.996003610813200500E-016, 2.442490654175340100E-015, 0.03886542422197669700 ) ) ;
#16 = CARTESIAN_POINT ( 'NONE',  ( 4.996003610813200500E-016, 2.442490654175340100E-015, 3.000000000000000000 ) ) ;
#17 = VERTEX_POINT ( 'NONE', #120 ) ;
#18 = CARTESIAN_POINT ( 'NONE',  ( 12.77595395985645900, -12.85239806260355200, 0.07913624050317420700 ) ) ;
#19 = ORIENTED_EDGE ( 'NONE', *, *, #40, .T. ) ;
#20 = VERTEX_POINT ( 'NONE', #63 ) ;
#21 = ADVANCED_FACE ( 'NONE', ( #213 ), #147, .T. ) ;
#22 = EDGE_CURVE ( 'NONE', #20, #17, #221, .T. ) ;
#23 = LINE ( 'NONE', #82, #49 ) ;
#24 = PERSON_AND_ORGANIZATION ( #209, #80 ) ;
#25 = CARTESIAN_POINT ( 'NONE',  ( -8.517567581258962400, -4.284187475290488000, -0.0001569047642311968300 ) ) ;
#26 = ORIENTED_EDGE ( 'NONE', *, *, #201, .F. ) ;
#27 = CARTESIAN_POINT ( 'NONE',  ( -12.77628073431265300, 4.284187475290165600, 0.02606535947821185500 ) ) ;
#28 = CC_DESIGN_PERSON_AND_ORGANIZATION_ASSIGNMENT ( #170, #184, ( #146 ) ) ;
#29 = CALENDAR_DATE ( 2018, 21, 12 ) ;
#30 = VECTOR ( 'NONE', #73, 1000.000000000000000 ) ;
#31 = AXIS2_PLACEMENT_3D ( 'NONE', #225, #124, #54 ) ;
#32 = CARTESIAN_POINT ( 'NONE',  ( -4.258684956061019400, -12.85239806260355300, 0.03980378802437813800 ) ) ;
#33 = CARTESIAN_POINT ( 'NONE',  ( -12.69999999999999900, 3.997792089092478900E-015, 0.03886542422197669700 ) ) ;
#34 = ADVANCED_BREP_SHAPE_REPRESENTATION ( '110-0285E BK7 pl-cx 25.4 F4000', ( #134, #216 ), #180 ) ;
#35 = CARTESIAN_POINT ( 'NONE',  ( -2.273736754432320100E-013, 12.85239806260323000, 0.03980378802426187700 ) ) ;
#36 = PERSON_AND_ORGANIZATION ( #209, #80 ) ;
#37 = PRODUCT_RELATED_PRODUCT_CATEGORY ( 'detail', '', ( #192 ) ) ;
#38 = DIRECTION ( 'NONE',  ( 1.000000000000000000, 0.0000000000000000000, 0.0000000000000000000 ) ) ;
#39 = APPROVAL_ROLE ( '' ) ;
#40 = EDGE_CURVE ( 'NONE', #177, #75, #23, .T. ) ;
#41 = CIRCLE ( 'NONE', #210, 12.69999999999999900 ) ;
#42 = APPROVAL ( #56, 'UNSPECIFIED' ) ;
#43 = CC_DESIGN_SECURITY_CLASSIFICATION ( #189, ( #146 ) ) ;
#44 = EDGE_CURVE ( 'NONE', #177, #61, #41, .T. ) ;
#45 = CIRCLE ( 'NONE', #112, 12.69999999999999900 ) ;
#46 = ORIENTED_EDGE ( 'NONE', *, *, #40, .F. ) ;
#47 = CARTESIAN_POINT ( 'NONE',  ( 0.0000000000000000000, 0.0000000000000000000, 0.0000000000000000000 ) ) ;
#48 =( BOUNDED_SURFACE ( )  B_SPLINE_SURFACE ( 3, 3, ( 
 ( #51, #90, #108, #18 ),
 ( #74, #110, #89, #94 ),
 ( #224, #2, #145, #70 ),
 ( #35, #159, #208, #228 ) ),
 .UNSPECIFIED., .F., .F., .T. ) 
 B_SPLINE_SURFACE_WITH_KNOTS ( ( 4, 4 ),
 ( 4, 4 ),
 ( 0.0000000000000000000, 1.000000000000000000 ),
 ( 0.0000000000000000000, 1.000000000000000000 ),
 .UNSPECIFIED. ) 
 GEOMETRIC_REPRESENTATION_ITEM ( )  RATIONAL_B_SPLINE_SURFACE ( (
 ( 1.000000000000000000, 0.9999968406987799200, 0.9999968406987799200, 1.000000000000000000),
 ( 0.9999872116343696500, 0.9999840523735519200, 0.9999840523735519200, 0.9999872116343696500),
 ( 0.9999872116343696500, 0.9999840523735519200, 0.9999840523735519200, 0.9999872116343696500),
 ( 1.000000000000000000, 0.9999968406987799200, 0.9999968406987799200, 1.000000000000000000) ) ) 
 REPRESENTATION_ITEM ( '' )  SURFACE ( )  );
#49 = VECTOR ( 'NONE', #102, 1000.000000000000000 ) ;
#50 = CARTESIAN_POINT ( 'NONE',  ( -8.517567581258962400, 4.284187475290166500, -0.0001569047642298754600 ) ) ;
#51 = CARTESIAN_POINT ( 'NONE',  ( -2.273736754432320100E-013, -12.85239806260355200, 0.03980378802426187700 ) ) ;
#52 = DIRECTION ( 'NONE',  ( 0.0000000000000000000, 0.0000000000000000000, 1.000000000000000000 ) ) ;
#53 = PERSON_AND_ORGANIZATION ( #209, #80 ) ;
#54 = DIRECTION ( 'NONE',  ( 0.0000000000000000000, -1.000000000000000000, -4.280377926265663700E-016 ) ) ;
#55 = CARTESIAN_POINT ( 'NONE',  ( 4.996003610813200500E-016, 2.442490654175340100E-015, 0.03886542422197669700 ) ) ;
#56 = APPROVAL_STATUS ( 'not_yet_approved' ) ;
#57 = PERSON_AND_ORGANIZATION ( #209, #80 ) ;
#58 = DATE_TIME_ROLE ( 'creation_date' ) ;
#59 = AXIS2_PLACEMENT_3D ( 'NONE', #69, #142, #158 ) ;
#60 = ADVANCED_FACE ( 'NONE', ( #98 ), #233, .T. ) ;
#61 = VERTEX_POINT ( 'NONE', #202 ) ;
#62 = ORIENTED_EDGE ( 'NONE', *, *, #148, .T. ) ;
#63 = CARTESIAN_POINT ( 'NONE',  ( 12.69999999999999900, 2.442490654175340100E-015, 0.03886542422197669700 ) ) ;
#64 = PERSON_AND_ORGANIZATION ( #209, #80 ) ;
#65 = EDGE_CURVE ( 'NONE', #17, #61, #107, .T. ) ;
#66 = CALENDAR_DATE ( 2018, 21, 12 ) ;
#67 = CARTESIAN_POINT ( 'NONE',  ( 4.996003610813200500E-016, 2.442490654175340100E-015, 0.03886542422197669700 ) ) ;
#68 = COORDINATED_UNIVERSAL_TIME_OFFSET ( 2, 0, .AHEAD. ) ;
#69 = CARTESIAN_POINT ( 'NONE',  ( 4.996003610813200500E-016, 2.442490654175340100E-015, 3.000000000000000000 ) ) ;
#70 = CARTESIAN_POINT ( 'NONE',  ( 12.77628073431057300, 4.284187475290165600, 0.02606535947812244800 ) ) ;
#71 = DIRECTION ( 'NONE',  ( -0.0000000000000000000, -0.0000000000000000000, -1.000000000000000000 ) ) ;
#72 = ORIENTED_EDGE ( 'NONE', *, *, #44, .F. ) ;
#73 = DIRECTION ( 'NONE',  ( 0.0000000000000000000, 0.0000000000000000000, 1.000000000000000000 ) ) ;
#74 = CARTESIAN_POINT ( 'NONE',  ( -2.273736754432320100E-013, -4.284187475290487200, -0.01326809901887237800 ) ) ;
#75 = VERTEX_POINT ( 'NONE', #10 ) ;
#76 = UNCERTAINTY_MEASURE_WITH_UNIT (LENGTH_MEASURE( 1.000000000000000100E-005 ), #4, 'distance_accuracy_value', 'NONE');
#77 = APPLICATION_CONTEXT ( 'configuration controlled 3d designs of mechanical parts and assemblies' ) ;
#78 = APPROVAL_STATUS ( 'not_yet_approved' ) ;
#79 = PERSON_AND_ORGANIZATION ( #209, #80 ) ;
#80 = ORGANIZATION ( 'UNSPECIFIED', 'UNSPECIFIED', '' ) ;
#81 = APPLICATION_CONTEXT ( 'configuration controlled 3d designs of mechanical parts and assemblies' ) ;
#82 = CARTESIAN_POINT ( 'NONE',  ( -12.69999999999999900, 3.997792089092478900E-015, 0.03886542422197669700 ) ) ;
#83 = CARTESIAN_POINT ( 'NONE',  ( -8.517349730418438000, 12.85239806260323400, 0.05291464693848323800 ) ) ;
#84 = AXIS2_PLACEMENT_3D ( 'NONE', #67, #174, #198 ) ;
#85 = DIRECTION ( 'NONE',  ( -0.0000000000000000000, -0.0000000000000000000, -1.000000000000000000 ) ) ;
#86 = PERSON_AND_ORGANIZATION_ROLE ( 'creator' ) ;
#87 = SHAPE_DEFINITION_REPRESENTATION ( #149, #34 ) ;
#88 = CARTESIAN_POINT ( 'NONE',  ( 12.69999999999999900, 2.442490654175340100E-015, 3.000000000000000000 ) ) ;
#89 = CARTESIAN_POINT ( 'NONE',  ( 8.517567581257255300, -4.284187475290488000, -0.0001569047643149718000 ) ) ;
#90 = CARTESIAN_POINT ( 'NONE',  ( 4.258684956059685300, -12.85239806260355300, 0.03980378802426187700 ) ) ;
#91 = DATE_AND_TIME ( #131, #230 ) ;
#92 = SECURITY_CLASSIFICATION_LEVEL ( 'unclassified' ) ;
#93 = DIRECTION ( 'NONE',  ( 1.000000000000000000, 0.0000000000000000000, -0.0000000000000000000 ) ) ;
#94 = CARTESIAN_POINT ( 'NONE',  ( 12.77628073431057300, -4.284187475290487200, 0.02606535947812112600 ) ) ;
#95 = APPROVAL_ROLE ( '' ) ;
#96 = CIRCLE ( 'NONE', #132, 12.69999999999999900 ) ;
#97 = DATE_TIME_ROLE ( 'classification_date' ) ;
#98 = FACE_OUTER_BOUND ( 'NONE', #235, .T. ) ;
#99 = CALENDAR_DATE ( 2018, 21, 12 ) ;
#100 = CC_DESIGN_APPROVAL ( #9, ( #6 ) ) ;
#101 = PERSON_AND_ORGANIZATION ( #209, #80 ) ;
#102 = DIRECTION ( 'NONE',  ( 0.0000000000000000000, 0.0000000000000000000, 1.000000000000000000 ) ) ;
#103 = APPROVAL_DATE_TIME ( #7, #161 ) ;
#104 = CC_DESIGN_APPROVAL ( #161, ( #146 ) ) ;
#105 = CARTESIAN_POINT ( 'NONE',  ( -4.258793881739377300, -4.284187475290488000, -0.01326809901875612500 ) ) ;
#106 = DIRECTION ( 'NONE',  ( 1.000000000000000000, 0.0000000000000000000, 0.0000000000000000000 ) ) ;
#107 = CIRCLE ( 'NONE', #31, 2075.000000000000000 ) ;
#108 = CARTESIAN_POINT ( 'NONE',  ( 8.517349730416730900, -12.85239806260355300, 0.05291464693839945100 ) ) ;
#109 = DIRECTION ( 'NONE',  ( -0.0000000000000000000, -0.0000000000000000000, -1.000000000000000000 ) ) ;
#110 = CARTESIAN_POINT ( 'NONE',  ( 4.258793881738045100, -4.284187475290488000, -0.01326809901887237600 ) ) ;
#111 = EDGE_LOOP ( 'NONE', ( #46, #115, #214, #229, #123 ) ) ;
#112 = AXIS2_PLACEMENT_3D ( 'NONE', #185, #109, #181 ) ;
#113 = ADVANCED_FACE ( 'NONE', ( #135 ), #48, .T. ) ;
#114 = ORIENTED_EDGE ( 'NONE', *, *, #165, .T. ) ;
#115 = ORIENTED_EDGE ( 'NONE', *, *, #165, .F. ) ;
#116 = LOCAL_TIME ( 8, 42, 39.00000000000000000, #168 ) ;
#117 = EDGE_LOOP ( 'NONE', ( #182, #193, #62 ) ) ;
#118 = CC_DESIGN_APPROVAL ( #42, ( #189 ) ) ;
#119 = CARTESIAN_POINT ( 'NONE',  ( -12.77595395985853700, -12.85239806260355200, 0.07913624050326362200 ) ) ;
#120 = CARTESIAN_POINT ( 'NONE',  ( -2.273736754432320100E-013, -12.70000000000617400, 0.03886542422201105800 ) ) ;
#121 = CC_DESIGN_PERSON_AND_ORGANIZATION_ASSIGNMENT ( #36, #86, ( #6 ) ) ;
#122 = CARTESIAN_POINT ( 'NONE',  ( -12.77595395985853700, 12.85239806260323000, 0.07913624050326362200 ) ) ;
#123 = ORIENTED_EDGE ( 'NONE', *, *, #188, .T. ) ;
#124 = DIRECTION ( 'NONE',  ( 1.000000000000000000, 0.0000000000000000000, 0.0000000000000000000 ) ) ;
#125 = DATE_AND_TIME ( #66, #129 ) ;
#126 = AXIS2_PLACEMENT_3D ( 'NONE', #16, #143, #38 ) ;
#127 = CIRCLE ( 'NONE', #126, 12.69999999999999900 ) ;
#128 = CC_DESIGN_DATE_AND_TIME_ASSIGNMENT ( #91, #58, ( #6 ) ) ;
#129 = LOCAL_TIME ( 8, 42, 39.00000000000000000, #150 ) ;
#130 = ORIENTED_EDGE ( 'NONE', *, *, #65, .F. ) ;
#131 = CALENDAR_DATE ( 2018, 21, 12 ) ;
#132 = AXIS2_PLACEMENT_3D ( 'NONE', #15, #71, #141 ) ;
#133 = CARTESIAN_POINT ( 'NONE',  ( -8.517349730418438000, -12.85239806260355300, 0.05291464693848323800 ) ) ;
#134 = MANIFOLD_SOLID_BREP ( 'Imported1', #172 ) ;
#135 = FACE_OUTER_BOUND ( 'NONE', #117, .T. ) ;
#136 = APPLICATION_PROTOCOL_DEFINITION ( 'international standard', 'config_control_design', 1994, #81 ) ;
#137 = CARTESIAN_POINT ( 'NONE',  ( 4.996003610813200500E-016, 2.442490654175340100E-015, 0.03886542422197669700 ) ) ;
#138 = CC_DESIGN_PERSON_AND_ORGANIZATION_ASSIGNMENT ( #101, #167, ( #192 ) ) ;
#139 =( NAMED_UNIT ( * ) SI_UNIT ( $, .STERADIAN. ) SOLID_ANGLE_UNIT ( ) );
#140 = LOCAL_TIME ( 8, 42, 39.00000000000000000, #211 ) ;
#141 = DIRECTION ( 'NONE',  ( 1.000000000000000000, 8.881784197001252300E-016, 0.0000000000000000000 ) ) ;
#142 = DIRECTION ( 'NONE',  ( -0.0000000000000000000, -0.0000000000000000000, -1.000000000000000000 ) ) ;
#143 = DIRECTION ( 'NONE',  ( -0.0000000000000000000, -0.0000000000000000000, -1.000000000000000000 ) ) ;
#144 = CC_DESIGN_PERSON_AND_ORGANIZATION_ASSIGNMENT ( #64, #162, ( #146 ) ) ;
#145 = CARTESIAN_POINT ( 'NONE',  ( 8.517567581257255300, 4.284187475290166500, -0.0001569047643136504300 ) ) ;
#146 = PRODUCT_DEFINITION_FORMATION_WITH_SPECIFIED_SOURCE ( 'ANY', '', #192, .NOT_KNOWN. ) ;
#147 = CYLINDRICAL_SURFACE ( 'NONE', #84, 12.69999999999999900 ) ;
#148 = EDGE_CURVE ( 'NONE', #61, #20, #96, .T. ) ;
#149 = PRODUCT_DEFINITION_SHAPE ( 'NONE', 'NONE',  #6 ) ;
#150 = COORDINATED_UNIVERSAL_TIME_OFFSET ( 2, 0, .AHEAD. ) ;
#151 = ORIENTED_EDGE ( 'NONE', *, *, #188, .F. ) ;
#152 = EDGE_LOOP ( 'NONE', ( #72, #19, #227, #26, #13 ) ) ;
#153 = AXIS2_PLACEMENT_3D ( 'NONE', #55, #52, #11 ) ;
#154 = CARTESIAN_POINT ( 'NONE',  ( -7.337880303381894000E-013, -4.284187475290487200, -0.01326809901875716400 ) ) ;
#155 = DIRECTION ( 'NONE',  ( 1.000000000000000000, 0.0000000000000000000, 0.0000000000000000000 ) ) ;
#156 = FACE_OUTER_BOUND ( 'NONE', #222, .T. ) ;
#157 = CARTESIAN_POINT ( 'NONE',  ( 0.0000000000000000000, 26.11199999999999800, 3.000000000000000000 ) ) ;
#158 = DIRECTION ( 'NONE',  ( 1.000000000000000000, 0.0000000000000000000, 0.0000000000000000000 ) ) ;
#159 = CARTESIAN_POINT ( 'NONE',  ( 4.258684956059685300, 12.85239806260323400, 0.03980378802426187700 ) ) ;
#160 = EDGE_CURVE ( 'NONE', #75, #164, #12, .T. ) ;
#161 = APPROVAL ( #3, 'UNSPECIFIED' ) ;
#162 = PERSON_AND_ORGANIZATION_ROLE ( 'creator' ) ;
#163 = APPROVAL_PERSON_ORGANIZATION ( #53, #9, #200 ) ;
#164 = VERTEX_POINT ( 'NONE', #88 ) ;
#165 = EDGE_CURVE ( 'NONE', #17, #177, #45, .T. ) ;
#166 = APPLICATION_PROTOCOL_DEFINITION ( 'international standard', 'config_control_design', 1994, #77 ) ;
#167 = PERSON_AND_ORGANIZATION_ROLE ( 'design_owner' ) ;
#168 = COORDINATED_UNIVERSAL_TIME_OFFSET ( 2, 0, .AHEAD. ) ;
#169 = AXIS2_PLACEMENT_3D ( 'NONE', #137, #197, #106 ) ;
#170 = PERSON_AND_ORGANIZATION ( #209, #80 ) ;
#171 = CALENDAR_DATE ( 2018, 21, 12 ) ;
#172 = CLOSED_SHELL ( 'NONE', ( #113, #21, #60, #194, #231 ) ) ;
#173 = CARTESIAN_POINT ( 'NONE',  ( -4.258684956061019400, 12.85239806260323400, 0.03980378802437813800 ) ) ;
#174 = DIRECTION ( 'NONE',  ( 0.0000000000000000000, 0.0000000000000000000, 1.000000000000000000 ) ) ;
#175 = MECHANICAL_CONTEXT ( 'NONE', #81, 'mechanical' ) ;
#176 = CARTESIAN_POINT ( 'NONE',  ( -7.337880303381894000E-013, 4.284187475290165600, -0.01326809901875584300 ) ) ;
#177 = VERTEX_POINT ( 'NONE', #33 ) ;
#178 = DIRECTION ( 'NONE',  ( 0.0000000000000000000, 0.0000000000000000000, 1.000000000000000000 ) ) ;
#179 = CARTESIAN_POINT ( 'NONE',  ( -7.337880303381894000E-013, 12.85239806260323000, 0.03980378802437709700 ) ) ;
#180 =( GEOMETRIC_REPRESENTATION_CONTEXT ( 3 ) GLOBAL_UNCERTAINTY_ASSIGNED_CONTEXT ( ( #76 ) ) GLOBAL_UNIT_ASSIGNED_CONTEXT ( ( #4, #204, #139 ) ) REPRESENTATION_CONTEXT ( 'NONE', 'WORKASPACE' ) );
#181 = DIRECTION ( 'NONE',  ( 1.000000000000000000, 0.0000000000000000000, 0.0000000000000000000 ) ) ;
#182 = ORIENTED_EDGE ( 'NONE', *, *, #22, .T. ) ;
#183 = CARTESIAN_POINT ( 'NONE',  ( 12.69999999999999900, 2.442490654175340100E-015, 0.03886542422197669700 ) ) ;
#184 = PERSON_AND_ORGANIZATION_ROLE ( 'design_supplier' ) ;
#185 = CARTESIAN_POINT ( 'NONE',  ( 4.996003610813200500E-016, 2.442490654175340100E-015, 0.03886542422197669700 ) ) ;
#186 = DATE_AND_TIME ( #29, #140 ) ;
#187 = FACE_OUTER_BOUND ( 'NONE', #111, .T. ) ;
#188 = EDGE_CURVE ( 'NONE', #164, #75, #127, .T. ) ;
#189 = SECURITY_CLASSIFICATION ( '', '', #92 ) ;
#190 = COORDINATED_UNIVERSAL_TIME_OFFSET ( 2, 0, .AHEAD. ) ;
#191 = CC_DESIGN_PERSON_AND_ORGANIZATION_ASSIGNMENT ( #57, #5, ( #189 ) ) ;
#192 = PRODUCT ( '110-0285E BK7 pl-cx 25.4 F4000', '110-0285E BK7 pl-cx 25.4 F4000', '', ( #175 ) ) ;
#193 = ORIENTED_EDGE ( 'NONE', *, *, #65, .T. ) ;
#194 = ADVANCED_FACE ( 'NONE', ( #187 ), #205, .T. ) ;
#195 = APPROVAL_DATE_TIME ( #125, #42 ) ;
#196 = APPROVAL_DATE_TIME ( #8, #9 ) ;
#197 = DIRECTION ( 'NONE',  ( -0.0000000000000000000, -0.0000000000000000000, -1.000000000000000000 ) ) ;
#198 = DIRECTION ( 'NONE',  ( 1.000000000000000000, 0.0000000000000000000, 0.0000000000000000000 ) ) ;
#199 = ORIENTED_EDGE ( 'NONE', *, *, #160, .F. ) ;
#200 = APPROVAL_ROLE ( '' ) ;
#201 = EDGE_CURVE ( 'NONE', #20, #164, #1, .T. ) ;
#202 = CARTESIAN_POINT ( 'NONE',  ( -2.273736754432320100E-013, 12.70000000000617600, 0.03886542422201105800 ) ) ;
#203 = CARTESIAN_POINT ( 'NONE',  ( -7.337880303381894000E-013, -12.85239806260355200, 0.03980378802437709700 ) ) ;
#204 =( NAMED_UNIT ( * ) PLANE_ANGLE_UNIT ( ) SI_UNIT ( $, .RADIAN. ) );
#205 = CYLINDRICAL_SURFACE ( 'NONE', #153, 12.69999999999999900 ) ;
#206 = DIRECTION ( 'NONE',  ( 0.0000000000000000000, 0.0000000000000000000, 1.000000000000000000 ) ) ;
#207 = DESIGN_CONTEXT ( 'detailed design', #77, 'design' ) ;
#208 = CARTESIAN_POINT ( 'NONE',  ( 8.517349730416730900, 12.85239806260323400, 0.05291464693839945100 ) ) ;
#209 = PERSON ( 'UNSPECIFIED', 'UNSPECIFIED', 'UNSPECIFIED', ('UNSPECIFIED'), ('UNSPECIFIED'), ('UNSPECIFIED') ) ;
#210 = AXIS2_PLACEMENT_3D ( 'NONE', #217, #85, #155 ) ;
#211 = COORDINATED_UNIVERSAL_TIME_OFFSET ( 2, 0, .AHEAD. ) ;
#212 = AXIS2_PLACEMENT_3D ( 'NONE', #157, #206, #93 ) ;
#213 = FACE_OUTER_BOUND ( 'NONE', #152, .T. ) ;
#214 = ORIENTED_EDGE ( 'NONE', *, *, #22, .F. ) ;
#215 = ORIENTED_EDGE ( 'NONE', *, *, #44, .T. ) ;
#216 = AXIS2_PLACEMENT_3D ( 'NONE', #47, #178, #14 ) ;
#217 = CARTESIAN_POINT ( 'NONE',  ( 4.996003610813200500E-016, 2.442490654175340100E-015, 0.03886542422197669700 ) ) ;
#218 = CARTESIAN_POINT ( 'NONE',  ( -12.77628073431265300, -4.284187475290487200, 0.02606535947821053300 ) ) ;
#219 = CC_DESIGN_DATE_AND_TIME_ASSIGNMENT ( #186, #97, ( #189 ) ) ;
#220 = APPROVAL_PERSON_ORGANIZATION ( #79, #42, #39 ) ;
#221 = CIRCLE ( 'NONE', #169, 12.69999999999999900 ) ;
#222 = EDGE_LOOP ( 'NONE', ( #151, #199 ) ) ;
#223 = PLANE ( 'NONE',  #212 ) ;
#224 = CARTESIAN_POINT ( 'NONE',  ( -2.273736754432320100E-013, 4.284187475290165600, -0.01326809901887105600 ) ) ;
#225 = CARTESIAN_POINT ( 'NONE',  ( -2.273736754432320100E-013, 0.0000000000000000000, 2075.000000000000000 ) ) ;
#226 = APPROVAL_PERSON_ORGANIZATION ( #24, #161, #95 ) ;
#227 = ORIENTED_EDGE ( 'NONE', *, *, #160, .T. ) ;
#228 = CARTESIAN_POINT ( 'NONE',  ( 12.77595395985645900, 12.85239806260323000, 0.07913624050317420700 ) ) ;
#229 = ORIENTED_EDGE ( 'NONE', *, *, #201, .T. ) ;
#230 = LOCAL_TIME ( 8, 42, 39.00000000000000000, #190 ) ;
#231 = ADVANCED_FACE ( 'NONE', ( #156 ), #223, .T. ) ;
#232 = LOCAL_TIME ( 8, 42, 39.00000000000000000, #68 ) ;
#233 =( BOUNDED_SURFACE ( )  B_SPLINE_SURFACE ( 3, 3, ( 
 ( #119, #133, #32, #203 ),
 ( #218, #25, #105, #154 ),
 ( #27, #50, #234, #176 ),
 ( #122, #83, #173, #179 ) ),
 .UNSPECIFIED., .F., .F., .T. ) 
 B_SPLINE_SURFACE_WITH_KNOTS ( ( 4, 4 ),
 ( 4, 4 ),
 ( 0.0000000000000000000, 1.000000000000000000 ),
 ( 0.0000000000000000000, 1.000000000000000000 ),
 .UNSPECIFIED. ) 
 GEOMETRIC_REPRESENTATION_ITEM ( )  RATIONAL_B_SPLINE_SURFACE ( (
 ( 1.000000000000000000, 0.9999968406987799200, 0.9999968406987799200, 1.000000000000000000),
 ( 0.9999872116343696500, 0.9999840523735519200, 0.9999840523735519200, 0.9999872116343696500),
 ( 0.9999872116343696500, 0.9999840523735519200, 0.9999840523735519200, 0.9999872116343696500),
 ( 1.000000000000000000, 0.9999968406987799200, 0.9999968406987799200, 1.000000000000000000) ) ) 
 REPRESENTATION_ITEM ( '' )  SURFACE ( )  );
#234 = CARTESIAN_POINT ( 'NONE',  ( -4.258793881739377300, 4.284187475290166500, -0.01326809901875480300 ) ) ;
#235 = EDGE_LOOP ( 'NONE', ( #130, #114, #215 ) ) ;
ENDSEC;
END-ISO-10303-21;
