ISO-10303-21;
HEADER;
FILE_DESCRIPTION (( 'STEP AP203' ),
    '1' );
FILE_NAME ('110-0281E BK7 pl-cx 25.4 F3000.STEP',
    '2018-12-21T06:43:02',
    ( '' ),
    ( '' ),
    'SwSTEP 2.0',
    'SolidWorks 2017',
    '' );
FILE_SCHEMA (( 'CONFIG_CONTROL_DESIGN' ));
ENDSEC;

DATA;
#1 = CARTESIAN_POINT ( 'NONE',  ( 4.996003610813200500E-016, 2.442490654175340100E-015, 3.000000000000000000 ) ) ;
#2 = CARTESIAN_POINT ( 'NONE',  ( -12.77634357625648000, -4.284229618287081800, 0.03475973430313640500 ) ) ;
#3 = DATE_AND_TIME ( #48, #234 ) ;
#4 = CARTESIAN_POINT ( 'NONE',  ( -12.69999999999999900, 3.997792089092478900E-015, 0.05182926936820930100 ) ) ;
#5 = LOCAL_TIME ( 8, 43, 2.000000000000000000, #167 ) ;
#6 = EDGE_LOOP ( 'NONE', ( #76, #11 ) ) ;
#7 = CC_DESIGN_PERSON_AND_ORGANIZATION_ASSIGNMENT ( #58, #112, ( #27 ) ) ;
#8 = ADVANCED_BREP_SHAPE_REPRESENTATION ( '110-0281E BK7 pl-cx 25.4 F3000', ( #196, #211 ), #99 ) ;
#9 = ADVANCED_FACE ( 'NONE', ( #51 ), #229, .T. ) ;
#10 = PERSON_AND_ORGANIZATION ( #153, #56 ) ;
#11 = ORIENTED_EDGE ( 'NONE', *, *, #147, .F. ) ;
#12 = DIRECTION ( 'NONE',  ( 1.000000000000000000, 0.0000000000000000000, 0.0000000000000000000 ) ) ;
#13 = EDGE_LOOP ( 'NONE', ( #200, #59, #22 ) ) ;
#14 = DATE_TIME_ROLE ( 'classification_date' ) ;
#15 = DIRECTION ( 'NONE',  ( 0.0000000000000000000, 0.0000000000000000000, 1.000000000000000000 ) ) ;
#16 =( BOUNDED_SURFACE ( )  B_SPLINE_SURFACE ( 3, 3, ( 
 ( #52, #217, #233, #113 ),
 ( #17, #175, #36, #220 ),
 ( #19, #136, #199, #154 ),
 ( #176, #67, #103, #43 ) ),
 .UNSPECIFIED., .F., .F., .F. ) 
 B_SPLINE_SURFACE_WITH_KNOTS ( ( 4, 4 ),
 ( 4, 4 ),
 ( 0.0000000000000000000, 1.000000000000000000 ),
 ( 0.0000000000000000000, 1.000000000000000000 ),
 .UNSPECIFIED. ) 
 GEOMETRIC_REPRESENTATION_ITEM ( )  RATIONAL_B_SPLINE_SURFACE ( (
 ( 1.000000000000000000, 0.9999943816084000400, 0.9999943816084000400, 1.000000000000000000),
 ( 0.9999772576571837000, 0.9999716393933590900, 0.9999716393933590900, 0.9999772576571837000),
 ( 0.9999772576571837000, 0.9999716393933590900, 0.9999716393933590900, 0.9999772576571837000),
 ( 1.000000000000000000, 0.9999943816084000400, 0.9999943816084000400, 1.000000000000000000) ) ) 
 REPRESENTATION_ITEM ( '' )  SURFACE ( )  );
#17 = CARTESIAN_POINT ( 'NONE',  ( -8.578324375456119500E-013, -4.284229618287085400, -0.01769394511263364100 ) ) ;
#18 = CALENDAR_DATE ( 2018, 21, 12 ) ;
#19 = CARTESIAN_POINT ( 'NONE',  ( -8.552721576091119500E-013, 4.284229618287191100, -0.01769394511263422100 ) ) ;
#20 = FACE_OUTER_BOUND ( 'NONE', #6, .T. ) ;
#21 = DIRECTION ( 'NONE',  ( 0.0000000000000000000, 0.0000000000000000000, 1.000000000000000000 ) ) ;
#22 = ORIENTED_EDGE ( 'NONE', *, *, #161, .T. ) ;
#23 = CARTESIAN_POINT ( 'NONE',  ( 12.69999999999999900, 2.442490654175340100E-015, 3.000000000000000000 ) ) ;
#24 = CARTESIAN_POINT ( 'NONE',  ( -1.236857838371463500E-012, 12.85239655460542400, 0.05308062813313992700 ) ) ;
#25 = CARTESIAN_POINT ( 'NONE',  ( -8.517646131196066500, 4.284229618287195500, -0.0002092870717403729200 ) ) ;
#26 = CIRCLE ( 'NONE', #47, 12.69999999999999900 ) ;
#27 = SECURITY_CLASSIFICATION ( '', '', #230 ) ;
#28 = EDGE_CURVE ( 'NONE', #45, #146, #57, .T. ) ;
#29 = ORIENTED_EDGE ( 'NONE', *, *, #161, .F. ) ;
#30 = LINE ( 'NONE', #4, #218 ) ;
#31 = PRODUCT ( '110-0281E BK7 pl-cx 25.4 F3000', '110-0281E BK7 pl-cx 25.4 F3000', '', ( #111 ) ) ;
#32 = APPLICATION_PROTOCOL_DEFINITION ( 'international standard', 'config_control_design', 1994, #101 ) ;
#33 = APPROVAL_ROLE ( '' ) ;
#34 = CARTESIAN_POINT ( 'NONE',  ( 4.996003610813200500E-016, 2.442490654175340100E-015, 0.05182926936820930100 ) ) ;
#35 = APPROVAL_DATE_TIME ( #77, #94 ) ;
#36 = CARTESIAN_POINT ( 'NONE',  ( 8.517646131195212100, -4.284229618287088900, -0.0002092870716937590100 ) ) ;
#37 = CC_DESIGN_APPROVAL ( #190, ( #27 ) ) ;
#38 = AXIS2_PLACEMENT_3D ( 'NONE', #87, #185, #124 ) ;
#39 = COORDINATED_UNIVERSAL_TIME_OFFSET ( 2, 0, .AHEAD. ) ;
#40 = CARTESIAN_POINT ( 'NONE',  ( -12.69999999999999900, 3.997792089092478900E-015, 0.05182926936820930100 ) ) ;
#41 = DIRECTION ( 'NONE',  ( -0.0000000000000000000, -0.0000000000000000000, -1.000000000000000000 ) ) ;
#42 = APPROVAL_DATE_TIME ( #172, #195 ) ;
#43 = CARTESIAN_POINT ( 'NONE',  ( 12.77576245158924500, 12.85239655460542200, 0.1055319217234093500 ) ) ;
#44 = PERSON_AND_ORGANIZATION ( #153, #56 ) ;
#45 = VERTEX_POINT ( 'NONE', #49 ) ;
#46 = AXIS2_PLACEMENT_3D ( 'NONE', #140, #143, #90 ) ;
#47 = AXIS2_PLACEMENT_3D ( 'NONE', #1, #117, #118 ) ;
#48 = CALENDAR_DATE ( 2018, 21, 12 ) ;
#49 = CARTESIAN_POINT ( 'NONE',  ( 12.69999999999999900, 2.442490654175340100E-015, 0.05182926936820930100 ) ) ;
#50 = APPROVAL_PERSON_ORGANIZATION ( #95, #94, #100 ) ;
#51 = FACE_OUTER_BOUND ( 'NONE', #116, .T. ) ;
#52 = CARTESIAN_POINT ( 'NONE',  ( -8.603743542741911500E-013, -12.85239655460531900, 0.05308062813313974000 ) ) ;
#53 = CARTESIAN_POINT ( 'NONE',  ( 4.996003610813200500E-016, 2.442490654175340100E-015, 0.05182926936820930100 ) ) ;
#54 = CARTESIAN_POINT ( 'NONE',  ( -4.258841011476074600, 4.284229618287193700, -0.01769394511263188600 ) ) ;
#55 = CARTESIAN_POINT ( 'NONE',  ( -8.603291408851415800E-013, -12.70000000002365700, 0.05182926936837001200 ) ) ;
#56 = ORGANIZATION ( 'UNSPECIFIED', 'UNSPECIFIED', '' ) ;
#57 = CIRCLE ( 'NONE', #186, 12.69999999999999900 ) ;
#58 = PERSON_AND_ORGANIZATION ( #153, #56 ) ;
#59 = ORIENTED_EDGE ( 'NONE', *, *, #84, .T. ) ;
#60 = APPLICATION_CONTEXT ( 'configuration controlled 3d designs of mechanical parts and assemblies' ) ;
#61 = ORIENTED_EDGE ( 'NONE', *, *, #123, .T. ) ;
#62 = AXIS2_PLACEMENT_3D ( 'NONE', #160, #21, #223 ) ;
#63 =( NAMED_UNIT ( * ) SI_UNIT ( $, .STERADIAN. ) SOLID_ANGLE_UNIT ( ) );
#64 = APPROVAL_STATUS ( 'not_yet_approved' ) ;
#65 = CIRCLE ( 'NONE', #227, 12.69999999999999900 ) ;
#66 = CC_DESIGN_PERSON_AND_ORGANIZATION_ASSIGNMENT ( #198, #81, ( #180 ) ) ;
#67 = CARTESIAN_POINT ( 'NONE',  ( 4.258647300531419200, 12.85239655460542400, 0.05308062813313865800 ) ) ;
#68 = DIRECTION ( 'NONE',  ( -0.0000000000000000000, -0.0000000000000000000, -1.000000000000000000 ) ) ;
#69 = ORIENTED_EDGE ( 'NONE', *, *, #191, .T. ) ;
#70 = CARTESIAN_POINT ( 'NONE',  ( -4.258647300532886400, 12.85239655460542700, 0.05308062813314209200 ) ) ;
#71 = CC_DESIGN_DATE_AND_TIME_ASSIGNMENT ( #137, #14, ( #27 ) ) ;
#72 = CARTESIAN_POINT ( 'NONE',  ( -4.547473508864640200E-013, 0.0000000000000000000, 1556.000000000000000 ) ) ;
#73 = APPROVAL_DATE_TIME ( #121, #190 ) ;
#74 = FACE_OUTER_BOUND ( 'NONE', #86, .T. ) ;
#75 = DIRECTION ( 'NONE',  ( -2.988028379211528500E-016, -1.000000000000000000, 5.708087530206460600E-016 ) ) ;
#76 = ORIENTED_EDGE ( 'NONE', *, *, #191, .F. ) ;
#77 = DATE_AND_TIME ( #142, #125 ) ;
#78 = PERSON_AND_ORGANIZATION ( #153, #56 ) ;
#79 = CC_DESIGN_APPROVAL ( #94, ( #201 ) ) ;
#80 = APPLICATION_PROTOCOL_DEFINITION ( 'international standard', 'config_control_design', 1994, #60 ) ;
#81 = PERSON_AND_ORGANIZATION_ROLE ( 'creator' ) ;
#82 = APPROVAL_PERSON_ORGANIZATION ( #89, #190, #33 ) ;
#83 = DIRECTION ( 'NONE',  ( 0.0000000000000000000, 0.0000000000000000000, 1.000000000000000000 ) ) ;
#84 = EDGE_CURVE ( 'NONE', #146, #130, #174, .T. ) ;
#85 = DIRECTION ( 'NONE',  ( 0.0000000000000000000, 0.0000000000000000000, 1.000000000000000000 ) ) ;
#86 = EDGE_LOOP ( 'NONE', ( #224, #222, #108 ) ) ;
#87 = CARTESIAN_POINT ( 'NONE',  ( 4.996003610813200500E-016, 2.442490654175340100E-015, 3.000000000000000000 ) ) ;
#88 = AXIS2_PLACEMENT_3D ( 'NONE', #179, #68, #152 ) ;
#89 = PERSON_AND_ORGANIZATION ( #153, #56 ) ;
#90 = DIRECTION ( 'NONE',  ( 1.000000000000000000, 0.0000000000000000000, -0.0000000000000000000 ) ) ;
#91 = CARTESIAN_POINT ( 'NONE',  ( -4.258647300532892600, -12.85239655460531700, 0.05308062813314209200 ) ) ;
#92 = APPROVAL_PERSON_ORGANIZATION ( #183, #195, #151 ) ;
#93 = ORIENTED_EDGE ( 'NONE', *, *, #123, .F. ) ;
#94 = APPROVAL ( #64, 'UNSPECIFIED' ) ;
#95 = PERSON_AND_ORGANIZATION ( #153, #56 ) ;
#96 = DESIGN_CONTEXT ( 'detailed design', #101, 'design' ) ;
#97 = VERTEX_POINT ( 'NONE', #173 ) ;
#98 = DIRECTION ( 'NONE',  ( -0.0000000000000000000, -0.0000000000000000000, -1.000000000000000000 ) ) ;
#99 =( GEOMETRIC_REPRESENTATION_CONTEXT ( 3 ) GLOBAL_UNCERTAINTY_ASSIGNED_CONTEXT ( ( #109 ) ) GLOBAL_UNIT_ASSIGNED_CONTEXT ( ( #131, #216, #63 ) ) REPRESENTATION_CONTEXT ( 'NONE', 'WORKASPACE' ) );
#100 = APPROVAL_ROLE ( '' ) ;
#101 = APPLICATION_CONTEXT ( 'configuration controlled 3d designs of mechanical parts and assemblies' ) ;
#102 = ORIENTED_EDGE ( 'NONE', *, *, #148, .T. ) ;
#103 = CARTESIAN_POINT ( 'NONE',  ( 8.517258710941364400, 12.85239655460542400, 0.07056449089442697100 ) ) ;
#104 = DIRECTION ( 'NONE',  ( -0.0000000000000000000, -0.0000000000000000000, -1.000000000000000000 ) ) ;
#105 = CARTESIAN_POINT ( 'NONE',  ( -8.517258710942215300, -12.85239655460531700, 0.07056449089438093800 ) ) ;
#106 = DIRECTION ( 'NONE',  ( 1.000000000000000000, -2.988028379211529900E-016, -2.582264637827899900E-016 ) ) ;
#107 = CIRCLE ( 'NONE', #206, 12.69999999999999900 ) ;
#108 = ORIENTED_EDGE ( 'NONE', *, *, #235, .T. ) ;
#109 = UNCERTAINTY_MEASURE_WITH_UNIT (LENGTH_MEASURE( 1.000000000000000100E-005 ), #131, 'distance_accuracy_value', 'NONE');
#110 = FACE_OUTER_BOUND ( 'NONE', #126, .T. ) ;
#111 = MECHANICAL_CONTEXT ( 'NONE', #60, 'mechanical' ) ;
#112 = PERSON_AND_ORGANIZATION_ROLE ( 'classification_officer' ) ;
#113 = CARTESIAN_POINT ( 'NONE',  ( 12.77576245158923700, -12.85239655460532200, 0.1055319217234093500 ) ) ;
#114 = VECTOR ( 'NONE', #15, 1000.000000000000000 ) ;
#115 = DIRECTION ( 'NONE',  ( 1.000000000000000000, 0.0000000000000000000, 0.0000000000000000000 ) ) ;
#116 = EDGE_LOOP ( 'NONE', ( #29, #102, #157, #93, #213 ) ) ;
#117 = DIRECTION ( 'NONE',  ( -0.0000000000000000000, -0.0000000000000000000, -1.000000000000000000 ) ) ;
#118 = DIRECTION ( 'NONE',  ( 1.000000000000000000, 0.0000000000000000000, 0.0000000000000000000 ) ) ;
#119 = CARTESIAN_POINT ( 'NONE',  ( -1.240327285323416700E-012, -4.284229618287085400, -0.01769394511263343600 ) ) ;
#120 = CARTESIAN_POINT ( 'NONE',  ( -8.517258710942210000, 12.85239655460542700, 0.07056449089438093800 ) ) ;
#121 = DATE_AND_TIME ( #145, #5 ) ;
#122 = ORIENTED_EDGE ( 'NONE', *, *, #84, .F. ) ;
#123 = EDGE_CURVE ( 'NONE', #45, #178, #208, .T. ) ;
#124 = DIRECTION ( 'NONE',  ( 1.000000000000000000, 0.0000000000000000000, 0.0000000000000000000 ) ) ;
#125 = LOCAL_TIME ( 8, 43, 2.000000000000000000, #226 ) ;
#126 = EDGE_LOOP ( 'NONE', ( #168, #122, #171, #61, #69 ) ) ;
#127 = ADVANCED_FACE ( 'NONE', ( #74 ), #16, .T. ) ;
#128 = LOCAL_TIME ( 8, 43, 2.000000000000000000, #189 ) ;
#129 = ADVANCED_FACE ( 'NONE', ( #110 ), #138, .T. ) ;
#130 = VERTEX_POINT ( 'NONE', #40 ) ;
#131 =( LENGTH_UNIT ( ) NAMED_UNIT ( * ) SI_UNIT ( .MILLI., .METRE. ) );
#132 = CARTESIAN_POINT ( 'NONE',  ( 4.996003610813200500E-016, 2.442490654175340100E-015, 0.05182926936820930100 ) ) ;
#133 = AXIS2_PLACEMENT_3D ( 'NONE', #34, #85, #135 ) ;
#134 = APPROVAL_STATUS ( 'not_yet_approved' ) ;
#135 = DIRECTION ( 'NONE',  ( 1.000000000000000000, 0.0000000000000000000, 0.0000000000000000000 ) ) ;
#136 = CARTESIAN_POINT ( 'NONE',  ( 4.258841011474602000, 4.284229618287192000, -0.01769394511263532400 ) ) ;
#137 = DATE_AND_TIME ( #18, #128 ) ;
#138 = CYLINDRICAL_SURFACE ( 'NONE', #62, 12.69999999999999900 ) ;
#139 = AXIS2_PLACEMENT_3D ( 'NONE', #72, #106, #75 ) ;
#140 = CARTESIAN_POINT ( 'NONE',  ( 0.0000000000000000000, 26.11199999999999800, 3.000000000000000000 ) ) ;
#141 = CARTESIAN_POINT ( 'NONE',  ( -4.258841011476076400, -4.284229618287086300, -0.01769394511263128900 ) ) ;
#142 = CALENDAR_DATE ( 2018, 21, 12 ) ;
#143 = DIRECTION ( 'NONE',  ( 0.0000000000000000000, 0.0000000000000000000, 1.000000000000000000 ) ) ;
#144 = CARTESIAN_POINT ( 'NONE',  ( -1.238592561847440100E-012, 4.284229618287191100, -0.01769394511263403300 ) ) ;
#145 = CALENDAR_DATE ( 2018, 21, 12 ) ;
#146 = VERTEX_POINT ( 'NONE', #55 ) ;
#147 = EDGE_CURVE ( 'NONE', #97, #178, #162, .T. ) ;
#148 = EDGE_CURVE ( 'NONE', #130, #97, #30, .T. ) ;
#149 = APPROVAL_STATUS ( 'not_yet_approved' ) ;
#150 = CC_DESIGN_PERSON_AND_ORGANIZATION_ASSIGNMENT ( #44, #232, ( #201 ) ) ;
#151 = APPROVAL_ROLE ( '' ) ;
#152 = DIRECTION ( 'NONE',  ( 1.000000000000000000, 0.0000000000000000000, 0.0000000000000000000 ) ) ;
#153 = PERSON ( 'UNSPECIFIED', 'UNSPECIFIED', 'UNSPECIFIED', ('UNSPECIFIED'), ('UNSPECIFIED'), ('UNSPECIFIED') ) ;
#154 = CARTESIAN_POINT ( 'NONE',  ( 12.77634357625624900, 4.284229618287188400, 0.03475973430318881500 ) ) ;
#155 = CARTESIAN_POINT ( 'NONE',  ( 12.69999999999999900, 2.442490654175340100E-015, 0.05182926936820930100 ) ) ;
#156 = CARTESIAN_POINT ( 'NONE',  ( 4.996003610813200500E-016, 2.442490654175340100E-015, 0.05182926936820930100 ) ) ;
#157 = ORIENTED_EDGE ( 'NONE', *, *, #147, .T. ) ;
#158 = DIRECTION ( 'NONE',  ( 1.000000000000000000, 8.881784197001252300E-016, 0.0000000000000000000 ) ) ;
#159 = DIRECTION ( 'NONE',  ( 0.0000000000000000000, 0.0000000000000000000, 1.000000000000000000 ) ) ;
#160 = CARTESIAN_POINT ( 'NONE',  ( 4.996003610813200500E-016, 2.442490654175340100E-015, 0.05182926936820930100 ) ) ;
#161 = EDGE_CURVE ( 'NONE', #130, #164, #65, .T. ) ;
#162 = CIRCLE ( 'NONE', #38, 12.69999999999999900 ) ;
#163 = CARTESIAN_POINT ( 'NONE',  ( -12.77576245158946800, 12.85239655460542700, 0.1055319217233563500 ) ) ;
#164 = VERTEX_POINT ( 'NONE', #202 ) ;
#165 = CC_DESIGN_DATE_AND_TIME_ASSIGNMENT ( #3, #231, ( #201 ) ) ;
#166 = ADVANCED_FACE ( 'NONE', ( #210 ), #184, .T. ) ;
#167 = COORDINATED_UNIVERSAL_TIME_OFFSET ( 2, 0, .AHEAD. ) ;
#168 = ORIENTED_EDGE ( 'NONE', *, *, #148, .F. ) ;
#169 = CC_DESIGN_SECURITY_CLASSIFICATION ( #27, ( #180 ) ) ;
#170 = CC_DESIGN_PERSON_AND_ORGANIZATION_ASSIGNMENT ( #10, #214, ( #31 ) ) ;
#171 = ORIENTED_EDGE ( 'NONE', *, *, #28, .F. ) ;
#172 = DATE_AND_TIME ( #205, #209 ) ;
#173 = CARTESIAN_POINT ( 'NONE',  ( -12.69999999999999900, 3.997792089092478900E-015, 3.000000000000000000 ) ) ;
#174 = CIRCLE ( 'NONE', #88, 12.69999999999999900 ) ;
#175 = CARTESIAN_POINT ( 'NONE',  ( 4.258841011474600300, -4.284229618287088000, -0.01769394511263474100 ) ) ;
#176 = CARTESIAN_POINT ( 'NONE',  ( -8.526936891449830300E-013, 12.85239655460542400, 0.05308062813313974000 ) ) ;
#177 = CC_DESIGN_APPROVAL ( #195, ( #180 ) ) ;
#178 = VERTEX_POINT ( 'NONE', #23 ) ;
#179 = CARTESIAN_POINT ( 'NONE',  ( 4.996003610813200500E-016, 2.442490654175340100E-015, 0.05182926936820930100 ) ) ;
#180 = PRODUCT_DEFINITION_FORMATION_WITH_SPECIFIED_SOURCE ( 'ANY', '', #31, .NOT_KNOWN. ) ;
#181 = CARTESIAN_POINT ( 'NONE',  ( -1.243796732275370700E-012, -12.85239655460531900, 0.05308062813313992700 ) ) ;
#182 = CARTESIAN_POINT ( 'NONE',  ( -12.77634357625647800, 4.284229618287194600, 0.03475973430313582200 ) ) ;
#183 = PERSON_AND_ORGANIZATION ( #153, #56 ) ;
#184 =( BOUNDED_SURFACE ( )  B_SPLINE_SURFACE ( 3, 3, ( 
 ( #204, #105, #91, #181 ),
 ( #2, #225, #141, #119 ),
 ( #182, #25, #54, #144 ),
 ( #163, #120, #70, #24 ) ),
 .UNSPECIFIED., .F., .F., .F. ) 
 B_SPLINE_SURFACE_WITH_KNOTS ( ( 4, 4 ),
 ( 4, 4 ),
 ( 0.0000000000000000000, 1.000000000000000000 ),
 ( 0.0000000000000000000, 1.000000000000000000 ),
 .UNSPECIFIED. ) 
 GEOMETRIC_REPRESENTATION_ITEM ( )  RATIONAL_B_SPLINE_SURFACE ( (
 ( 1.000000000000000000, 0.9999943816084000400, 0.9999943816084000400, 1.000000000000000000),
 ( 0.9999772576571837000, 0.9999716393933590900, 0.9999716393933590900, 0.9999772576571837000),
 ( 0.9999772576571837000, 0.9999716393933590900, 0.9999716393933590900, 0.9999772576571837000),
 ( 1.000000000000000000, 0.9999943816084000400, 0.9999943816084000400, 1.000000000000000000) ) ) 
 REPRESENTATION_ITEM ( '' )  SURFACE ( )  );
#185 = DIRECTION ( 'NONE',  ( -0.0000000000000000000, -0.0000000000000000000, -1.000000000000000000 ) ) ;
#186 = AXIS2_PLACEMENT_3D ( 'NONE', #156, #104, #115 ) ;
#187 = SHAPE_DEFINITION_REPRESENTATION ( #207, #8 ) ;
#188 = CLOSED_SHELL ( 'NONE', ( #127, #9, #166, #129, #228 ) ) ;
#189 = COORDINATED_UNIVERSAL_TIME_OFFSET ( 2, 0, .AHEAD. ) ;
#190 = APPROVAL ( #134, 'UNSPECIFIED' ) ;
#191 = EDGE_CURVE ( 'NONE', #178, #97, #26, .T. ) ;
#192 = COORDINATED_UNIVERSAL_TIME_OFFSET ( 2, 0, .AHEAD. ) ;
#193 = CIRCLE ( 'NONE', #139, 1556.000000000000000 ) ;
#194 = DIRECTION ( 'NONE',  ( 1.000000000000000000, -8.881784197001252300E-016, 0.0000000000000000000 ) ) ;
#195 = APPROVAL ( #149, 'UNSPECIFIED' ) ;
#196 = MANIFOLD_SOLID_BREP ( 'Imported1', #188 ) ;
#197 = CARTESIAN_POINT ( 'NONE',  ( 0.0000000000000000000, 0.0000000000000000000, 0.0000000000000000000 ) ) ;
#198 = PERSON_AND_ORGANIZATION ( #153, #56 ) ;
#199 = CARTESIAN_POINT ( 'NONE',  ( 8.517646131195215600, 4.284229618287190200, -0.0002092870716943349600 ) ) ;
#200 = ORIENTED_EDGE ( 'NONE', *, *, #219, .F. ) ;
#201 = PRODUCT_DEFINITION ( 'UNKNOWN', '', #180, #96 ) ;
#202 = CARTESIAN_POINT ( 'NONE',  ( -8.527395488019301600E-013, 12.70000000002365900, 0.05182926936837001200 ) ) ;
#203 = PLANE ( 'NONE',  #46 ) ;
#204 = CARTESIAN_POINT ( 'NONE',  ( -12.77576245158947500, -12.85239655460531500, 0.1055319217233563500 ) ) ;
#205 = CALENDAR_DATE ( 2018, 21, 12 ) ;
#206 = AXIS2_PLACEMENT_3D ( 'NONE', #132, #98, #194 ) ;
#207 = PRODUCT_DEFINITION_SHAPE ( 'NONE', 'NONE',  #201 ) ;
#208 = LINE ( 'NONE', #155, #114 ) ;
#209 = LOCAL_TIME ( 8, 43, 2.000000000000000000, #39 ) ;
#210 = FACE_OUTER_BOUND ( 'NONE', #13, .T. ) ;
#211 = AXIS2_PLACEMENT_3D ( 'NONE', #197, #83, #12 ) ;
#212 = PERSON_AND_ORGANIZATION_ROLE ( 'design_supplier' ) ;
#213 = ORIENTED_EDGE ( 'NONE', *, *, #235, .F. ) ;
#214 = PERSON_AND_ORGANIZATION_ROLE ( 'design_owner' ) ;
#215 = PRODUCT_RELATED_PRODUCT_CATEGORY ( 'detail', '', ( #31 ) ) ;
#216 =( NAMED_UNIT ( * ) PLANE_ANGLE_UNIT ( ) SI_UNIT ( $, .RADIAN. ) );
#217 = CARTESIAN_POINT ( 'NONE',  ( 4.258647300531411200, -12.85239655460532000, 0.05308062813313865800 ) ) ;
#218 = VECTOR ( 'NONE', #159, 1000.000000000000000 ) ;
#219 = EDGE_CURVE ( 'NONE', #146, #164, #193, .T. ) ;
#220 = CARTESIAN_POINT ( 'NONE',  ( 12.77634357625624700, -4.284229618287088900, 0.03475973430318939800 ) ) ;
#221 = CC_DESIGN_PERSON_AND_ORGANIZATION_ASSIGNMENT ( #78, #212, ( #180 ) ) ;
#222 = ORIENTED_EDGE ( 'NONE', *, *, #219, .T. ) ;
#223 = DIRECTION ( 'NONE',  ( 1.000000000000000000, 0.0000000000000000000, 0.0000000000000000000 ) ) ;
#224 = ORIENTED_EDGE ( 'NONE', *, *, #28, .T. ) ;
#225 = CARTESIAN_POINT ( 'NONE',  ( -8.517646131196068300, -4.284229618287084500, -0.0002092870717397901600 ) ) ;
#226 = COORDINATED_UNIVERSAL_TIME_OFFSET ( 2, 0, .AHEAD. ) ;
#227 = AXIS2_PLACEMENT_3D ( 'NONE', #53, #41, #158 ) ;
#228 = ADVANCED_FACE ( 'NONE', ( #20 ), #203, .T. ) ;
#229 = CYLINDRICAL_SURFACE ( 'NONE', #133, 12.69999999999999900 ) ;
#230 = SECURITY_CLASSIFICATION_LEVEL ( 'unclassified' ) ;
#231 = DATE_TIME_ROLE ( 'creation_date' ) ;
#232 = PERSON_AND_ORGANIZATION_ROLE ( 'creator' ) ;
#233 = CARTESIAN_POINT ( 'NONE',  ( 8.517258710941357300, -12.85239655460532000, 0.07056449089442697100 ) ) ;
#234 = LOCAL_TIME ( 8, 43, 2.000000000000000000, #192 ) ;
#235 = EDGE_CURVE ( 'NONE', #164, #45, #107, .T. ) ;
ENDSEC;
END-ISO-10303-21;
