ISO-10303-21;
HEADER;
FILE_DESCRIPTION (( 'STEP AP203' ),
    '1' );
FILE_NAME ('110-0275E BK7 pl-cx 25.4 F2500.STEP',
    '2018-12-21T06:44:21',
    ( '' ),
    ( '' ),
    'SwSTEP 2.0',
    'SolidWorks 2017',
    '' );
FILE_SCHEMA (( 'CONFIG_CONTROL_DESIGN' ));
ENDSEC;

DATA;
#1 = PERSON_AND_ORGANIZATION_ROLE ( 'creator' ) ;
#2 = LOCAL_TIME ( 8, 44, 21.00000000000000000, #162 ) ;
#3 = LOCAL_TIME ( 8, 44, 21.00000000000000000, #80 ) ;
#4 = ORGANIZATION ( 'UNSPECIFIED', 'UNSPECIFIED', '' ) ;
#5 = ORIENTED_EDGE ( 'NONE', *, *, #158, .T. ) ;
#6 = LINE ( 'NONE', #117, #222 ) ;
#7 = AXIS2_PLACEMENT_3D ( 'NONE', #47, #82, #17 ) ;
#8 = CIRCLE ( 'NONE', #199, 12.69999999999999900 ) ;
#9 = CARTESIAN_POINT ( 'NONE',  ( -1.759690666830768900E-013, -4.284271914779201200, -0.02122764337174831000 ) ) ;
#10 = DIRECTION ( 'NONE',  ( 0.0000000000000000000, 0.0000000000000000000, 1.000000000000000000 ) ) ;
#11 = CARTESIAN_POINT ( 'NONE',  ( 4.258609508150261300, -12.85239504108649600, 0.06368084562158184100 ) ) ;
#12 = CARTESIAN_POINT ( 'NONE',  ( -1.697997602177059600E-013, 12.85239504108658800, 0.06368084562158316000 ) ) ;
#13 = CC_DESIGN_PERSON_AND_ORGANIZATION_ASSIGNMENT ( #29, #48, ( #163 ) ) ;
#14 = CARTESIAN_POINT ( 'NONE',  ( -12.77640664711703900, -4.284271914779195900, 0.04170136788644647500 ) ) ;
#15 = CALENDAR_DATE ( 2018, 21, 12 ) ;
#16 = ADVANCED_FACE ( 'NONE', ( #166 ), #230, .T. ) ;
#17 = DIRECTION ( 'NONE',  ( 1.000000000000000000, 0.0000000000000000000, -0.0000000000000000000 ) ) ;
#18 = CARTESIAN_POINT ( 'NONE',  ( 12.69999999999999900, 2.442490654175340100E-015, 0.06217959379409650900 ) ) ;
#19 = APPROVAL_STATUS ( 'not_yet_approved' ) ;
#20 = MECHANICAL_CONTEXT ( 'NONE', #174, 'mechanical' ) ;
#21 = APPROVAL_DATE_TIME ( #134, #155 ) ;
#22 = VERTEX_POINT ( 'NONE', #221 ) ;
#23 = DATE_AND_TIME ( #112, #202 ) ;
#24 = CIRCLE ( 'NONE', #220, 12.69999999999999900 ) ;
#25 = CC_DESIGN_SECURITY_CLASSIFICATION ( #163, ( #219 ) ) ;
#26 = ORIENTED_EDGE ( 'NONE', *, *, #78, .F. ) ;
#27 = CARTESIAN_POINT ( 'NONE',  ( -1.728974900357208400E-013, 4.284271914779294500, -0.02122764337174741500 ) ) ;
#28 = CARTESIAN_POINT ( 'NONE',  ( -4.978656376053436400E-013, -4.284271914779200300, -0.02122764337170868900 ) ) ;
#29 = PERSON_AND_ORGANIZATION ( #97, #4 ) ;
#30 = ADVANCED_FACE ( 'NONE', ( #161 ), #203, .T. ) ;
#31 = CARTESIAN_POINT ( 'NONE',  ( 4.996003610813200500E-016, 2.442490654175340100E-015, 0.06217959379409650900 ) ) ;
#32 = CARTESIAN_POINT ( 'NONE',  ( 4.996003610813200500E-016, 2.442490654175340100E-015, 0.06217959379409650900 ) ) ;
#33 = DIRECTION ( 'NONE',  ( 0.0000000000000000000, 0.0000000000000000000, 1.000000000000000000 ) ) ;
#34 = CARTESIAN_POINT ( 'NONE',  ( -12.77557024956236000, -12.85239504108648800, 0.1266057372808493400 ) ) ;
#35 = CARTESIAN_POINT ( 'NONE',  ( -8.517724967333158800, 4.284271914779296300, -0.0002511366612574056100 ) ) ;
#36 = CARTESIAN_POINT ( 'NONE',  ( 0.0000000000000000000, 0.0000000000000000000, 0.0000000000000000000 ) ) ;
#37 = ORIENTED_EDGE ( 'NONE', *, *, #143, .F. ) ;
#38 = PERSON_AND_ORGANIZATION_ROLE ( 'design_owner' ) ;
#39 = LINE ( 'NONE', #83, #225 ) ;
#40 = AXIS2_PLACEMENT_3D ( 'NONE', #138, #59, #135 ) ;
#41 = CARTESIAN_POINT ( 'NONE',  ( 12.77557024956226800, -12.85239504108649900, 0.1266057372808666600 ) ) ;
#42 = CARTESIAN_POINT ( 'NONE',  ( 4.258609508150269300, 12.85239504108658600, 0.06368084562158184100 ) ) ;
#43 = AXIS2_PLACEMENT_3D ( 'NONE', #157, #189, #86 ) ;
#44 = DIRECTION ( 'NONE',  ( 0.0000000000000000000, 0.0000000000000000000, 1.000000000000000000 ) ) ;
#45 = CARTESIAN_POINT ( 'NONE',  ( -8.517167361072589300, -12.85239504108649000, 0.08465597912132596900 ) ) ;
#46 = DIRECTION ( 'NONE',  ( -0.0000000000000000000, -0.0000000000000000000, -1.000000000000000000 ) ) ;
#47 = CARTESIAN_POINT ( 'NONE',  ( 0.0000000000000000000, 26.11199999999999800, 3.000000000000000000 ) ) ;
#48 = PERSON_AND_ORGANIZATION_ROLE ( 'classification_officer' ) ;
#49 = EDGE_LOOP ( 'NONE', ( #197, #94, #210 ) ) ;
#50 = APPROVAL_STATUS ( 'not_yet_approved' ) ;
#51 = SHAPE_DEFINITION_REPRESENTATION ( #149, #178 ) ;
#52 = AXIS2_PLACEMENT_3D ( 'NONE', #99, #10, #101 ) ;
#53 = CC_DESIGN_DATE_AND_TIME_ASSIGNMENT ( #216, #106, ( #61 ) ) ;
#54 = CIRCLE ( 'NONE', #43, 12.69999999999999900 ) ;
#55 = ORIENTED_EDGE ( 'NONE', *, *, #158, .F. ) ;
#56 = ADVANCED_FACE ( 'NONE', ( #154 ), #179, .T. ) ;
#57 = CARTESIAN_POINT ( 'NONE',  ( 8.517724967332881600, -4.284271914779202100, -0.0002511366612411494000 ) ) ;
#58 =( BOUNDED_SURFACE ( )  B_SPLINE_SURFACE ( 3, 3, ( 
 ( #34, #45, #167, #226 ),
 ( #14, #151, #132, #28 ),
 ( #170, #35, #65, #89 ),
 ( #85, #234, #215, #68 ) ),
 .UNSPECIFIED., .F., .F., .F. ) 
 B_SPLINE_SURFACE_WITH_KNOTS ( ( 4, 4 ),
 ( 4, 4 ),
 ( 0.0000000000000000000, 1.000000000000000000 ),
 ( 0.0000000000000000000, 1.000000000000000000 ),
 .UNSPECIFIED. ) 
 GEOMETRIC_REPRESENTATION_ITEM ( )  RATIONAL_B_SPLINE_SURFACE ( (
 ( 1.000000000000000000, 0.9999919136002337600, 0.9999919136002337600, 1.000000000000000000),
 ( 0.9999672676198294600, 0.9999591814847503800, 0.9999591814847503800, 0.9999672676198294600),
 ( 0.9999672676198294600, 0.9999591814847503800, 0.9999591814847503800, 0.9999672676198294600),
 ( 1.000000000000000000, 0.9999919136002337600, 0.9999919136002337600, 1.000000000000000000) ) ) 
 REPRESENTATION_ITEM ( '' )  SURFACE ( )  );
#59 = DIRECTION ( 'NONE',  ( -0.0000000000000000000, -0.0000000000000000000, -1.000000000000000000 ) ) ;
#60 = ORIENTED_EDGE ( 'NONE', *, *, #143, .T. ) ;
#61 = PRODUCT_DEFINITION ( 'UNKNOWN', '', #219, #98 ) ;
#62 = DIRECTION ( 'NONE',  ( 0.0000000000000000000, 0.0000000000000000000, 1.000000000000000000 ) ) ;
#63 = DIRECTION ( 'NONE',  ( 1.000000000000000000, 0.0000000000000000000, 0.0000000000000000000 ) ) ;
#64 = APPROVAL_DATE_TIME ( #23, #223 ) ;
#65 = CARTESIAN_POINT ( 'NONE',  ( -4.258888312971920200, 4.284271914779295400, -0.02122764337170541700 ) ) ;
#66 = DIRECTION ( 'NONE',  ( 1.000000000000000000, 0.0000000000000000000, 0.0000000000000000000 ) ) ;
#67 = CC_DESIGN_DATE_AND_TIME_ASSIGNMENT ( #183, #139, ( #163 ) ) ;
#68 = CARTESIAN_POINT ( 'NONE',  ( -4.891920202254596000E-013, 12.85239504108658800, 0.06368084562162278100 ) ) ;
#69 = ORIENTED_EDGE ( 'NONE', *, *, #200, .T. ) ;
#70 = VERTEX_POINT ( 'NONE', #168 ) ;
#71 = PERSON_AND_ORGANIZATION ( #97, #4 ) ;
#72 = PRODUCT ( '110-0275E BK7 pl-cx 25.4 F2500', '110-0275E BK7 pl-cx 25.4 F2500', '', ( #20 ) ) ;
#73 = PERSON_AND_ORGANIZATION ( #97, #4 ) ;
#74 = APPROVAL ( #19, 'UNSPECIFIED' ) ;
#75 = EDGE_LOOP ( 'NONE', ( #55, #26, #123, #125, #69 ) ) ;
#76 = EDGE_LOOP ( 'NONE', ( #213, #81, #190 ) ) ;
#77 = CARTESIAN_POINT ( 'NONE',  ( 4.258888312971450300, 4.284271914779290900, -0.02122764337174873700 ) ) ;
#78 = EDGE_CURVE ( 'NONE', #105, #22, #24, .T. ) ;
#79 = CARTESIAN_POINT ( 'NONE',  ( 4.996003610813200500E-016, 2.442490654175340100E-015, 0.06217959379409650900 ) ) ;
#80 = COORDINATED_UNIVERSAL_TIME_OFFSET ( 2, 0, .AHEAD. ) ;
#81 = ORIENTED_EDGE ( 'NONE', *, *, #102, .T. ) ;
#82 = DIRECTION ( 'NONE',  ( 0.0000000000000000000, 0.0000000000000000000, 1.000000000000000000 ) ) ;
#83 = CARTESIAN_POINT ( 'NONE',  ( 12.69999999999999900, 2.442490654175340100E-015, 0.06217959379409650900 ) ) ;
#84 = APPROVAL_PERSON_ORGANIZATION ( #180, #74, #175 ) ;
#85 = CARTESIAN_POINT ( 'NONE',  ( -12.77557024956235000, 12.85239504108659300, 0.1266057372808493400 ) ) ;
#86 = DIRECTION ( 'NONE',  ( 1.000000000000000000, 0.0000000000000000000, 0.0000000000000000000 ) ) ;
#87 = CC_DESIGN_APPROVAL ( #155, ( #163 ) ) ;
#88 = CIRCLE ( 'NONE', #95, 12.69999999999999900 ) ;
#89 = CARTESIAN_POINT ( 'NONE',  ( -4.926614671774132100E-013, 4.284271914779295400, -0.02122764337170779400 ) ) ;
#90 =( NAMED_UNIT ( * ) SI_UNIT ( $, .STERADIAN. ) SOLID_ANGLE_UNIT ( ) );
#91 = APPROVAL_PERSON_ORGANIZATION ( #124, #155, #193 ) ;
#92 = PRODUCT_RELATED_PRODUCT_CATEGORY ( 'detail', '', ( #72 ) ) ;
#93 = DATE_AND_TIME ( #212, #224 ) ;
#94 = ORIENTED_EDGE ( 'NONE', *, *, #78, .T. ) ;
#95 = AXIS2_PLACEMENT_3D ( 'NONE', #185, #186, #104 ) ;
#96 = VERTEX_POINT ( 'NONE', #133 ) ;
#97 = PERSON ( 'UNSPECIFIED', 'UNSPECIFIED', 'UNSPECIFIED', ('UNSPECIFIED'), ('UNSPECIFIED'), ('UNSPECIFIED') ) ;
#98 = DESIGN_CONTEXT ( 'detailed design', #156, 'design' ) ;
#99 = CARTESIAN_POINT ( 'NONE',  ( 4.996003610813200500E-016, 2.442490654175340100E-015, 0.06217959379409650900 ) ) ;
#100 = CARTESIAN_POINT ( 'NONE',  ( 12.77557024956227800, 12.85239504108658300, 0.1266057372808666600 ) ) ;
#101 = DIRECTION ( 'NONE',  ( 1.000000000000000000, 0.0000000000000000000, 0.0000000000000000000 ) ) ;
#102 = EDGE_CURVE ( 'NONE', #105, #70, #131, .T. ) ;
#103 = DIRECTION ( 'NONE',  ( 1.000000000000000000, 0.0000000000000000000, 0.0000000000000000000 ) ) ;
#104 = DIRECTION ( 'NONE',  ( 1.000000000000000000, 0.0000000000000000000, 0.0000000000000000000 ) ) ;
#105 = VERTEX_POINT ( 'NONE', #115 ) ;
#106 = DATE_TIME_ROLE ( 'creation_date' ) ;
#107 = CC_DESIGN_PERSON_AND_ORGANIZATION_ASSIGNMENT ( #120, #1, ( #219 ) ) ;
#108 = CALENDAR_DATE ( 2018, 21, 12 ) ;
#109 = EDGE_CURVE ( 'NONE', #70, #165, #231, .T. ) ;
#110 = CARTESIAN_POINT ( 'NONE',  ( 8.517167361072301500, -12.85239504108649700, 0.08465597912134312200 ) ) ;
#111 = CC_DESIGN_APPROVAL ( #74, ( #219 ) ) ;
#112 = CALENDAR_DATE ( 2018, 21, 12 ) ;
#113 = ORIENTED_EDGE ( 'NONE', *, *, #122, .F. ) ;
#114 = DIRECTION ( 'NONE',  ( 1.000000000000000000, -3.584712535121920200E-016, -3.097921184626219800E-016 ) ) ;
#115 = CARTESIAN_POINT ( 'NONE',  ( -1.789600243743060200E-013, -12.69999999999737600, 0.06217959379408076500 ) ) ;
#116 = DIRECTION ( 'NONE',  ( 1.000000000000000000, 0.0000000000000000000, 0.0000000000000000000 ) ) ;
#117 = CARTESIAN_POINT ( 'NONE',  ( -12.69999999999999900, 3.997792089092478900E-015, 0.06217959379409650900 ) ) ;
#118 = APPLICATION_PROTOCOL_DEFINITION ( 'international standard', 'config_control_design', 1994, #156 ) ;
#119 = APPLICATION_PROTOCOL_DEFINITION ( 'international standard', 'config_control_design', 1994, #174 ) ;
#120 = PERSON_AND_ORGANIZATION ( #97, #4 ) ;
#121 = PERSON_AND_ORGANIZATION_ROLE ( 'creator' ) ;
#122 = EDGE_CURVE ( 'NONE', #22, #70, #88, .T. ) ;
#123 = ORIENTED_EDGE ( 'NONE', *, *, #164, .F. ) ;
#124 = PERSON_AND_ORGANIZATION ( #97, #4 ) ;
#125 = ORIENTED_EDGE ( 'NONE', *, *, #145, .T. ) ;
#126 = CC_DESIGN_PERSON_AND_ORGANIZATION_ASSIGNMENT ( #207, #121, ( #61 ) ) ;
#127 = CARTESIAN_POINT ( 'NONE',  ( 4.258888312971446800, -4.284271914779201200, -0.02122764337174963200 ) ) ;
#128 = COORDINATED_UNIVERSAL_TIME_OFFSET ( 2, 0, .AHEAD. ) ;
#129 = EDGE_LOOP ( 'NONE', ( #204, #37 ) ) ;
#130 = AXIS2_PLACEMENT_3D ( 'NONE', #36, #232, #66 ) ;
#131 = CIRCLE ( 'NONE', #218, 1297.000000000000000 ) ;
#132 = CARTESIAN_POINT ( 'NONE',  ( -4.258888312971925500, -4.284271914779196800, -0.02122764337170630600 ) ) ;
#133 = CARTESIAN_POINT ( 'NONE',  ( 12.69999999999999900, 2.442490654175340100E-015, 3.000000000000000000 ) ) ;
#134 = DATE_AND_TIME ( #229, #140 ) ;
#135 = DIRECTION ( 'NONE',  ( 1.000000000000000000, 8.881784197001252300E-016, 0.0000000000000000000 ) ) ;
#136 = COORDINATED_UNIVERSAL_TIME_OFFSET ( 2, 0, .AHEAD. ) ;
#137 = PERSON_AND_ORGANIZATION ( #97, #4 ) ;
#138 = CARTESIAN_POINT ( 'NONE',  ( 4.996003610813200500E-016, 2.442490654175340100E-015, 0.06217959379409650900 ) ) ;
#139 = DATE_TIME_ROLE ( 'classification_date' ) ;
#140 = LOCAL_TIME ( 8, 44, 21.00000000000000000, #195 ) ;
#141 = SECURITY_CLASSIFICATION_LEVEL ( 'unclassified' ) ;
#142 =( LENGTH_UNIT ( ) NAMED_UNIT ( * ) SI_UNIT ( .MILLI., .METRE. ) );
#143 = EDGE_CURVE ( 'NONE', #159, #96, #181, .T. ) ;
#144 = MANIFOLD_SOLID_BREP ( 'Imported1', #176 ) ;
#145 = EDGE_CURVE ( 'NONE', #165, #96, #39, .T. ) ;
#146 = CARTESIAN_POINT ( 'NONE',  ( 8.517724967332885200, 4.284271914779290000, -0.0002511366612402481100 ) ) ;
#147 = ADVANCED_FACE ( 'NONE', ( #208 ), #227, .T. ) ;
#148 = CARTESIAN_POINT ( 'NONE',  ( 12.77640664711695500, 4.284271914779290000, 0.04170136788646469600 ) ) ;
#149 = PRODUCT_DEFINITION_SHAPE ( 'NONE', 'NONE',  #61 ) ;
#150 =( GEOMETRIC_REPRESENTATION_CONTEXT ( 3 ) GLOBAL_UNCERTAINTY_ASSIGNED_CONTEXT ( ( #188 ) ) GLOBAL_UNIT_ASSIGNED_CONTEXT ( ( #142, #214, #90 ) ) REPRESENTATION_CONTEXT ( 'NONE', 'WORKASPACE' ) );
#151 = CARTESIAN_POINT ( 'NONE',  ( -8.517724967333162300, -4.284271914779195900, -0.0002511366612583068500 ) ) ;
#152 = DIRECTION ( 'NONE',  ( 1.000000000000000000, 0.0000000000000000000, 0.0000000000000000000 ) ) ;
#153 = APPROVAL_DATE_TIME ( #93, #74 ) ;
#154 = FACE_OUTER_BOUND ( 'NONE', #75, .T. ) ;
#155 = APPROVAL ( #191, 'UNSPECIFIED' ) ;
#156 = APPLICATION_CONTEXT ( 'configuration controlled 3d designs of mechanical parts and assemblies' ) ;
#157 = CARTESIAN_POINT ( 'NONE',  ( 4.996003610813200500E-016, 2.442490654175340100E-015, 3.000000000000000000 ) ) ;
#158 = EDGE_CURVE ( 'NONE', #22, #159, #6, .T. ) ;
#159 = VERTEX_POINT ( 'NONE', #211 ) ;
#160 = APPROVAL_PERSON_ORGANIZATION ( #137, #223, #177 ) ;
#161 = FACE_OUTER_BOUND ( 'NONE', #169, .T. ) ;
#162 = COORDINATED_UNIVERSAL_TIME_OFFSET ( 2, 0, .AHEAD. ) ;
#163 = SECURITY_CLASSIFICATION ( '', '', #141 ) ;
#164 = EDGE_CURVE ( 'NONE', #165, #105, #8, .T. ) ;
#165 = VERTEX_POINT ( 'NONE', #18 ) ;
#166 = FACE_OUTER_BOUND ( 'NONE', #76, .T. ) ;
#167 = CARTESIAN_POINT ( 'NONE',  ( -4.258609508150743600, -12.85239504108649200, 0.06368084562162515400 ) ) ;
#168 = CARTESIAN_POINT ( 'NONE',  ( -1.698548545350981900E-013, 12.69999999999749100, 0.06217959379408076500 ) ) ;
#169 = EDGE_LOOP ( 'NONE', ( #113, #5, #60, #217, #194 ) ) ;
#170 = CARTESIAN_POINT ( 'NONE',  ( -12.77640664711703300, 4.284271914779299800, 0.04170136788644737000 ) ) ;
#171 = DIRECTION ( 'NONE',  ( -3.584712535121920700E-016, -1.000000000000000000, -3.423972319584137200E-016 ) ) ;
#172 = ADVANCED_FACE ( 'NONE', ( #235 ), #58, .T. ) ;
#173 = CC_DESIGN_PERSON_AND_ORGANIZATION_ASSIGNMENT ( #73, #196, ( #219 ) ) ;
#174 = APPLICATION_CONTEXT ( 'configuration controlled 3d designs of mechanical parts and assemblies' ) ;
#175 = APPROVAL_ROLE ( '' ) ;
#176 = CLOSED_SHELL ( 'NONE', ( #16, #30, #172, #56, #147 ) ) ;
#177 = APPROVAL_ROLE ( '' ) ;
#178 = ADVANCED_BREP_SHAPE_REPRESENTATION ( '110-0275E BK7 pl-cx 25.4 F2500', ( #144, #130 ), #150 ) ;
#179 = CYLINDRICAL_SURFACE ( 'NONE', #233, 12.69999999999999900 ) ;
#180 = PERSON_AND_ORGANIZATION ( #97, #4 ) ;
#181 = CIRCLE ( 'NONE', #198, 12.69999999999999900 ) ;
#182 = CARTESIAN_POINT ( 'NONE',  ( 12.77640664711695400, -4.284271914779205700, 0.04170136788646380100 ) ) ;
#183 = DATE_AND_TIME ( #15, #2 ) ;
#184 = CARTESIAN_POINT ( 'NONE',  ( 8.517167361072312200, 12.85239504108658400, 0.08465597912134312200 ) ) ;
#185 = CARTESIAN_POINT ( 'NONE',  ( 4.996003610813200500E-016, 2.442490654175340100E-015, 0.06217959379409650900 ) ) ;
#186 = DIRECTION ( 'NONE',  ( -0.0000000000000000000, -0.0000000000000000000, -1.000000000000000000 ) ) ;
#187 = CARTESIAN_POINT ( 'NONE',  ( 4.996003610813200500E-016, 2.442490654175340100E-015, 3.000000000000000000 ) ) ;
#188 = UNCERTAINTY_MEASURE_WITH_UNIT (LENGTH_MEASURE( 1.000000000000000100E-005 ), #142, 'distance_accuracy_value', 'NONE');
#189 = DIRECTION ( 'NONE',  ( -0.0000000000000000000, -0.0000000000000000000, -1.000000000000000000 ) ) ;
#190 = ORIENTED_EDGE ( 'NONE', *, *, #109, .T. ) ;
#191 = APPROVAL_STATUS ( 'not_yet_approved' ) ;
#192 = CC_DESIGN_PERSON_AND_ORGANIZATION_ASSIGNMENT ( #71, #38, ( #72 ) ) ;
#193 = APPROVAL_ROLE ( '' ) ;
#194 = ORIENTED_EDGE ( 'NONE', *, *, #109, .F. ) ;
#195 = COORDINATED_UNIVERSAL_TIME_OFFSET ( 2, 0, .AHEAD. ) ;
#196 = PERSON_AND_ORGANIZATION_ROLE ( 'design_supplier' ) ;
#197 = ORIENTED_EDGE ( 'NONE', *, *, #102, .F. ) ;
#198 = AXIS2_PLACEMENT_3D ( 'NONE', #187, #209, #116 ) ;
#199 = AXIS2_PLACEMENT_3D ( 'NONE', #79, #206, #103 ) ;
#200 = EDGE_CURVE ( 'NONE', #96, #159, #54, .T. ) ;
#201 = CARTESIAN_POINT ( 'NONE',  ( -1.790141885397303200E-013, -12.85239504108649400, 0.06368084562158316000 ) ) ;
#202 = LOCAL_TIME ( 8, 44, 21.00000000000000000, #128 ) ;
#203 = CYLINDRICAL_SURFACE ( 'NONE', #52, 12.69999999999999900 ) ;
#204 = ORIENTED_EDGE ( 'NONE', *, *, #200, .F. ) ;
#205 = CC_DESIGN_APPROVAL ( #223, ( #61 ) ) ;
#206 = DIRECTION ( 'NONE',  ( -0.0000000000000000000, -0.0000000000000000000, -1.000000000000000000 ) ) ;
#207 = PERSON_AND_ORGANIZATION ( #97, #4 ) ;
#208 = FACE_OUTER_BOUND ( 'NONE', #129, .T. ) ;
#209 = DIRECTION ( 'NONE',  ( -0.0000000000000000000, -0.0000000000000000000, -1.000000000000000000 ) ) ;
#210 = ORIENTED_EDGE ( 'NONE', *, *, #122, .T. ) ;
#211 = CARTESIAN_POINT ( 'NONE',  ( -12.69999999999999900, 3.997792089092478900E-015, 3.000000000000000000 ) ) ;
#212 = CALENDAR_DATE ( 2018, 21, 12 ) ;
#213 = ORIENTED_EDGE ( 'NONE', *, *, #164, .T. ) ;
#214 =( NAMED_UNIT ( * ) PLANE_ANGLE_UNIT ( ) SI_UNIT ( $, .RADIAN. ) );
#215 = CARTESIAN_POINT ( 'NONE',  ( -4.258609508150732900, 12.85239504108659000, 0.06368084562162515400 ) ) ;
#216 = DATE_AND_TIME ( #108, #3 ) ;
#217 = ORIENTED_EDGE ( 'NONE', *, *, #145, .F. ) ;
#218 = AXIS2_PLACEMENT_3D ( 'NONE', #228, #114, #171 ) ;
#219 = PRODUCT_DEFINITION_FORMATION_WITH_SPECIFIED_SOURCE ( 'ANY', '', #72, .NOT_KNOWN. ) ;
#220 = AXIS2_PLACEMENT_3D ( 'NONE', #32, #46, #152 ) ;
#221 = CARTESIAN_POINT ( 'NONE',  ( -12.69999999999999900, 3.997792089092478900E-015, 0.06217959379409650900 ) ) ;
#222 = VECTOR ( 'NONE', #62, 1000.000000000000000 ) ;
#223 = APPROVAL ( #50, 'UNSPECIFIED' ) ;
#224 = LOCAL_TIME ( 8, 44, 21.00000000000000000, #136 ) ;
#225 = VECTOR ( 'NONE', #33, 1000.000000000000000 ) ;
#226 = CARTESIAN_POINT ( 'NONE',  ( -4.996003610813204400E-013, -12.85239504108649400, 0.06368084562162278100 ) ) ;
#227 = PLANE ( 'NONE',  #7 ) ;
#228 = CARTESIAN_POINT ( 'NONE',  ( 2.273736754432320100E-013, 1.136868377216160000E-013, 1297.000000000000000 ) ) ;
#229 = CALENDAR_DATE ( 2018, 21, 12 ) ;
#230 =( BOUNDED_SURFACE ( )  B_SPLINE_SURFACE ( 3, 3, ( 
 ( #201, #11, #110, #41 ),
 ( #9, #127, #57, #182 ),
 ( #27, #77, #146, #148 ),
 ( #12, #42, #184, #100 ) ),
 .UNSPECIFIED., .F., .F., .T. ) 
 B_SPLINE_SURFACE_WITH_KNOTS ( ( 4, 4 ),
 ( 4, 4 ),
 ( 0.0000000000000000000, 1.000000000000000000 ),
 ( 0.0000000000000000000, 1.000000000000000000 ),
 .UNSPECIFIED. ) 
 GEOMETRIC_REPRESENTATION_ITEM ( )  RATIONAL_B_SPLINE_SURFACE ( (
 ( 1.000000000000000000, 0.9999919136002337600, 0.9999919136002337600, 1.000000000000000000),
 ( 0.9999672676198294600, 0.9999591814847503800, 0.9999591814847503800, 0.9999672676198294600),
 ( 0.9999672676198294600, 0.9999591814847503800, 0.9999591814847503800, 0.9999672676198294600),
 ( 1.000000000000000000, 0.9999919136002337600, 0.9999919136002337600, 1.000000000000000000) ) ) 
 REPRESENTATION_ITEM ( '' )  SURFACE ( )  );
#231 = CIRCLE ( 'NONE', #40, 12.69999999999999900 ) ;
#232 = DIRECTION ( 'NONE',  ( 0.0000000000000000000, 0.0000000000000000000, 1.000000000000000000 ) ) ;
#233 = AXIS2_PLACEMENT_3D ( 'NONE', #31, #44, #63 ) ;
#234 = CARTESIAN_POINT ( 'NONE',  ( -8.517167361072578700, 12.85239504108659100, 0.08465597912132596900 ) ) ;
#235 = FACE_OUTER_BOUND ( 'NONE', #49, .T. ) ;
ENDSEC;
END-ISO-10303-21;
