ISO-10303-21;
HEADER;
FILE_DESCRIPTION (( 'STEP AP203' ),
    '1' );
FILE_NAME ('110-0271E BK7 pl-cx 25.4 F2000.STEP',
    '2018-12-21T06:44:40',
    ( '' ),
    ( '' ),
    'SwSTEP 2.0',
    'SolidWorks 2017',
    '' );
FILE_SCHEMA (( 'CONFIG_CONTROL_DESIGN' ));
ENDSEC;

DATA;
#1 = DATE_AND_TIME ( #54, #3 ) ;
#2 = AXIS2_PLACEMENT_3D ( 'NONE', #174, #156, #229 ) ;
#3 = LOCAL_TIME ( 8, 44, 40.00000000000000000, #141 ) ;
#4 = DIRECTION ( 'NONE',  ( 0.0000000000000000000, 0.0000000000000000000, 1.000000000000000000 ) ) ;
#5 =( GEOMETRIC_REPRESENTATION_CONTEXT ( 3 ) GLOBAL_UNCERTAINTY_ASSIGNED_CONTEXT ( ( #83 ) ) GLOBAL_UNIT_ASSIGNED_CONTEXT ( ( #172, #192, #78 ) ) REPRESENTATION_CONTEXT ( 'NONE', 'WORKASPACE' ) );
#6 = PERSON_AND_ORGANIZATION ( #201, #188 ) ;
#7 = EDGE_CURVE ( 'NONE', #105, #91, #223, .T. ) ;
#8 = ORIENTED_EDGE ( 'NONE', *, *, #12, .F. ) ;
#9 = CARTESIAN_POINT ( 'NONE',  ( 4.996003610813200500E-016, 2.442490654175340100E-015, 0.07769558603279890000 ) ) ;
#10 = DIRECTION ( 'NONE',  ( 0.0000000000000000000, 0.0000000000000000000, 1.000000000000000000 ) ) ;
#11 = PERSON_AND_ORGANIZATION ( #201, #188 ) ;
#12 = EDGE_CURVE ( 'NONE', #60, #73, #47, .T. ) ;
#13 = CARTESIAN_POINT ( 'NONE',  ( 12.69999999999999900, 2.442490654175340100E-015, 0.07769558603279890000 ) ) ;
#14 = APPROVAL_ROLE ( '' ) ;
#15 = ORIENTED_EDGE ( 'NONE', *, *, #202, .F. ) ;
#16 = PERSON_AND_ORGANIZATION_ROLE ( 'design_owner' ) ;
#17 = DIRECTION ( 'NONE',  ( 0.0000000000000000000, -1.000000000000000000, 0.0000000000000000000 ) ) ;
#18 = PRODUCT_DEFINITION ( 'UNKNOWN', '', #39, #86 ) ;
#19 = APPROVAL_STATUS ( 'not_yet_approved' ) ;
#20 = ADVANCED_FACE ( 'NONE', ( #220 ), #69, .T. ) ;
#21 = EDGE_LOOP ( 'NONE', ( #36, #102, #186 ) ) ;
#22 = EDGE_LOOP ( 'NONE', ( #85, #197, #148 ) ) ;
#23 = ORIENTED_EDGE ( 'NONE', *, *, #121, .F. ) ;
#24 = AXIS2_PLACEMENT_3D ( 'NONE', #209, #110, #130 ) ;
#25 = FACE_OUTER_BOUND ( 'NONE', #71, .T. ) ;
#26 = CARTESIAN_POINT ( 'NONE',  ( 0.0000000000000000000, 4.284349706834170500, -0.02652517034993391900 ) ) ;
#27 = CARTESIAN_POINT ( 'NONE',  ( 12.69999999999999900, 2.442490654175340100E-015, 3.000000000000000000 ) ) ;
#28 = APPROVAL ( #67, 'UNSPECIFIED' ) ;
#29 = CARTESIAN_POINT ( 'NONE',  ( 0.0000000000000000000, 26.11199999999999800, 3.000000000000000000 ) ) ;
#30 = PLANE ( 'NONE',  #77 ) ;
#31 = DIRECTION ( 'NONE',  ( 1.000000000000000000, 0.0000000000000000000, 0.0000000000000000000 ) ) ;
#32 = DIRECTION ( 'NONE',  ( 1.000000000000000000, 0.0000000000000000000, 0.0000000000000000000 ) ) ;
#33 = DATE_TIME_ROLE ( 'creation_date' ) ;
#34 = AXIS2_PLACEMENT_3D ( 'NONE', #221, #200, #219 ) ;
#35 = CIRCLE ( 'NONE', #205, 12.69999999999999900 ) ;
#36 = ORIENTED_EDGE ( 'NONE', *, *, #230, .T. ) ;
#37 = PERSON_AND_ORGANIZATION ( #201, #188 ) ;
#38 = CIRCLE ( 'NONE', #24, 12.69999999999999900 ) ;
#39 = PRODUCT_DEFINITION_FORMATION_WITH_SPECIFIED_SOURCE ( 'ANY', '', #56, .NOT_KNOWN. ) ;
#40 = CARTESIAN_POINT ( 'NONE',  ( 4.258975310473336300, 4.284349706834171400, -0.02652517034993391600 ) ) ;
#41 = DATE_AND_TIME ( #222, #101 ) ;
#42 = VERTEX_POINT ( 'NONE', #61 ) ;
#43 = CARTESIAN_POINT ( 'NONE',  ( -4.258975310473518400, 4.284349706834171400, -0.02652517035000646200 ) ) ;
#44 = LOCAL_TIME ( 8, 44, 40.00000000000000000, #162 ) ;
#45 = DIRECTION ( 'NONE',  ( 0.0000000000000000000, 0.0000000000000000000, 1.000000000000000000 ) ) ;
#46 = SECURITY_CLASSIFICATION_LEVEL ( 'unclassified' ) ;
#47 = CIRCLE ( 'NONE', #34, 12.69999999999999900 ) ;
#48 = PERSON_AND_ORGANIZATION_ROLE ( 'creator' ) ;
#49 = CC_DESIGN_PERSON_AND_ORGANIZATION_ASSIGNMENT ( #139, #16, ( #56 ) ) ;
#50 = DATE_AND_TIME ( #129, #144 ) ;
#51 = ADVANCED_FACE ( 'NONE', ( #25 ), #30, .T. ) ;
#52 = APPROVAL_DATE_TIME ( #1, #136 ) ;
#53 = ORIENTED_EDGE ( 'NONE', *, *, #68, .F. ) ;
#54 = CALENDAR_DATE ( 2018, 21, 12 ) ;
#55 = CARTESIAN_POINT ( 'NONE',  ( 8.517869963562526800, -4.284349706834070100, -0.0003139302078604750100 ) ) ;
#56 = PRODUCT ( '110-0271E BK7 pl-cx 25.4 F2000', '110-0271E BK7 pl-cx 25.4 F2000', '', ( #211 ) ) ;
#57 = CARTESIAN_POINT ( 'NONE',  ( 8.516999352701237300, 12.85239225750812500, 0.1057800053878637400 ) ) ;
#58 = CARTESIAN_POINT ( 'NONE',  ( -4.258540000920881100, -12.85239225750802400, 0.07957144429464010900 ) ) ;
#59 = AXIS2_PLACEMENT_3D ( 'NONE', #93, #45, #31 ) ;
#60 = VERTEX_POINT ( 'NONE', #182 ) ;
#61 = CARTESIAN_POINT ( 'NONE',  ( 0.0000000000000000000, -12.70000000000174500, 0.07769558603294929300 ) ) ;
#62 = CARTESIAN_POINT ( 'NONE',  ( -8.517869963562633400, -4.284349706834070100, -0.0003139302079334282600 ) ) ;
#63 = DIRECTION ( 'NONE',  ( -0.0000000000000000000, -0.0000000000000000000, -1.000000000000000000 ) ) ;
#64 = CC_DESIGN_APPROVAL ( #28, ( #18 ) ) ;
#65 = DIRECTION ( 'NONE',  ( -0.0000000000000000000, -0.0000000000000000000, -1.000000000000000000 ) ) ;
#66 = ORIENTED_EDGE ( 'NONE', *, *, #230, .F. ) ;
#67 = APPROVAL_STATUS ( 'not_yet_approved' ) ;
#68 = EDGE_CURVE ( 'NONE', #91, #142, #35, .T. ) ;
#69 =( BOUNDED_SURFACE ( )  B_SPLINE_SURFACE ( 3, 3, ( 
 ( #184, #206, #204, #89 ),
 ( #124, #123, #55, #185 ),
 ( #26, #40, #164, #161 ),
 ( #183, #165, #57, #92 ) ),
 .UNSPECIFIED., .F., .F., .F. ) 
 B_SPLINE_SURFACE_WITH_KNOTS ( ( 4, 4 ),
 ( 4, 4 ),
 ( 0.0000000000000000000, 1.000000000000000000 ),
 ( 0.0000000000000000000, 1.000000000000000000 ),
 .UNSPECIFIED. ) 
 GEOMETRIC_REPRESENTATION_ITEM ( )  RATIONAL_B_SPLINE_SURFACE ( (
 ( 1.000000000000000000, 0.9999873745242663400, 0.9999873745242663400, 1.000000000000000000),
 ( 0.9999488943838825700, 0.9999362695533816600, 0.9999362695533816600, 0.9999488943838825700),
 ( 0.9999488943838825700, 0.9999362695533816600, 0.9999362695533816600, 0.9999488943838825700),
 ( 1.000000000000000000, 0.9999873745242663400, 0.9999873745242663400, 1.000000000000000000) ) ) 
 REPRESENTATION_ITEM ( '' )  SURFACE ( )  );
#70 = SHAPE_DEFINITION_REPRESENTATION ( #100, #88 ) ;
#71 = EDGE_LOOP ( 'NONE', ( #125, #53 ) ) ;
#72 = PERSON_AND_ORGANIZATION ( #201, #188 ) ;
#73 = VERTEX_POINT ( 'NONE', #106 ) ;
#74 = CC_DESIGN_PERSON_AND_ORGANIZATION_ASSIGNMENT ( #177, #133, ( #18 ) ) ;
#75 = CARTESIAN_POINT ( 'NONE',  ( -12.77652264755431400, 4.284349706834170500, 0.05210755728797369200 ) ) ;
#76 = CARTESIAN_POINT ( 'NONE',  ( -12.77652264755431400, -4.284349706834070100, 0.05210755728797263100 ) ) ;
#77 = AXIS2_PLACEMENT_3D ( 'NONE', #29, #150, #191 ) ;
#78 =( NAMED_UNIT ( * ) SI_UNIT ( $, .STERADIAN. ) SOLID_ANGLE_UNIT ( ) );
#79 = CIRCLE ( 'NONE', #215, 12.69999999999999900 ) ;
#80 = APPROVAL_ROLE ( '' ) ;
#81 = ADVANCED_FACE ( 'NONE', ( #158 ), #210, .T. ) ;
#82 = APPLICATION_PROTOCOL_DEFINITION ( 'international standard', 'config_control_design', 1994, #116 ) ;
#83 = UNCERTAINTY_MEASURE_WITH_UNIT (LENGTH_MEASURE( 1.000000000000000100E-005 ), #172, 'distance_accuracy_value', 'NONE');
#84 = CC_DESIGN_DATE_AND_TIME_ASSIGNMENT ( #41, #33, ( #18 ) ) ;
#85 = ORIENTED_EDGE ( 'NONE', *, *, #151, .F. ) ;
#86 = DESIGN_CONTEXT ( 'detailed design', #116, 'design' ) ;
#87 = COORDINATED_UNIVERSAL_TIME_OFFSET ( 2, 0, .AHEAD. ) ;
#88 = ADVANCED_BREP_SHAPE_REPRESENTATION ( '110-0271E BK7 pl-cx 25.4 F2000', ( #179, #2 ), #5 ) ;
#89 = CARTESIAN_POINT ( 'NONE',  ( 12.77521676011598700, -12.85239225750802200, 0.1581961348873965900 ) ) ;
#90 = APPROVAL_PERSON_ORGANIZATION ( #11, #136, #14 ) ;
#91 = VERTEX_POINT ( 'NONE', #126 ) ;
#92 = CARTESIAN_POINT ( 'NONE',  ( 12.77521676011598700, 12.85239225750812300, 0.1581961348873965900 ) ) ;
#93 = CARTESIAN_POINT ( 'NONE',  ( 4.996003610813200500E-016, 2.442490654175340100E-015, 0.07769558603279890000 ) ) ;
#94 = CC_DESIGN_PERSON_AND_ORGANIZATION_ASSIGNMENT ( #153, #233, ( #39 ) ) ;
#95 = CALENDAR_DATE ( 2018, 21, 12 ) ;
#96 = DIRECTION ( 'NONE',  ( -0.0000000000000000000, -0.0000000000000000000, -1.000000000000000000 ) ) ;
#97 = DATE_AND_TIME ( #181, #44 ) ;
#98 = CARTESIAN_POINT ( 'NONE',  ( 4.996003610813200500E-016, 2.442490654175340100E-015, 0.07769558603279890000 ) ) ;
#99 = ADVANCED_FACE ( 'NONE', ( #199 ), #166, .T. ) ;
#100 = PRODUCT_DEFINITION_SHAPE ( 'NONE', 'NONE',  #18 ) ;
#101 = LOCAL_TIME ( 8, 44, 40.00000000000000000, #87 ) ;
#102 = ORIENTED_EDGE ( 'NONE', *, *, #151, .T. ) ;
#103 = ADVANCED_FACE ( 'NONE', ( #118 ), #228, .T. ) ;
#104 = SECURITY_CLASSIFICATION ( '', '', #46 ) ;
#105 = VERTEX_POINT ( 'NONE', #226 ) ;
#106 = CARTESIAN_POINT ( 'NONE',  ( 12.69999999999999900, 2.442490654175340100E-015, 0.07769558603279890000 ) ) ;
#107 = CLOSED_SHELL ( 'NONE', ( #20, #99, #103, #81, #51 ) ) ;
#108 = CARTESIAN_POINT ( 'NONE',  ( -8.517869963562633400, 4.284349706834171400, -0.0003139302079323712700 ) ) ;
#109 = DIRECTION ( 'NONE',  ( 1.000000000000000000, 0.0000000000000000000, 0.0000000000000000000 ) ) ;
#110 = DIRECTION ( 'NONE',  ( -0.0000000000000000000, -0.0000000000000000000, -1.000000000000000000 ) ) ;
#111 = DATE_AND_TIME ( #95, #175 ) ;
#112 = VECTOR ( 'NONE', #4, 1000.000000000000000 ) ;
#113 = CARTESIAN_POINT ( 'NONE',  ( 4.996003610813200500E-016, 2.442490654175340100E-015, 0.07769558603279890000 ) ) ;
#114 = APPLICATION_PROTOCOL_DEFINITION ( 'international standard', 'config_control_design', 1994, #138 ) ;
#115 = PERSON_AND_ORGANIZATION_ROLE ( 'classification_officer' ) ;
#116 = APPLICATION_CONTEXT ( 'configuration controlled 3d designs of mechanical parts and assemblies' ) ;
#117 = CC_DESIGN_PERSON_AND_ORGANIZATION_ASSIGNMENT ( #72, #115, ( #104 ) ) ;
#118 = FACE_OUTER_BOUND ( 'NONE', #22, .T. ) ;
#119 = APPROVAL_DATE_TIME ( #97, #28 ) ;
#120 = CIRCLE ( 'NONE', #176, 1038.000000000000000 ) ;
#121 = EDGE_CURVE ( 'NONE', #73, #142, #154, .T. ) ;
#122 = ORIENTED_EDGE ( 'NONE', *, *, #140, .T. ) ;
#123 = CARTESIAN_POINT ( 'NONE',  ( 4.258975310473336300, -4.284349706834070100, -0.02652517034993497400 ) ) ;
#124 = CARTESIAN_POINT ( 'NONE',  ( 0.0000000000000000000, -4.284349706834070100, -0.02652517034993497400 ) ) ;
#125 = ORIENTED_EDGE ( 'NONE', *, *, #140, .F. ) ;
#126 = CARTESIAN_POINT ( 'NONE',  ( -12.69999999999999900, 3.997792089092478900E-015, 3.000000000000000000 ) ) ;
#127 = CARTESIAN_POINT ( 'NONE',  ( -2.550043509685906400E-013, 4.284349706834170500, -0.02652517035000751000 ) ) ;
#128 = CC_DESIGN_DATE_AND_TIME_ASSIGNMENT ( #111, #227, ( #104 ) ) ;
#129 = CALENDAR_DATE ( 2018, 21, 12 ) ;
#130 = DIRECTION ( 'NONE',  ( 1.000000000000000000, 0.0000000000000000000, 0.0000000000000000000 ) ) ;
#131 = DIRECTION ( 'NONE',  ( 1.000000000000000000, 0.0000000000000000000, 0.0000000000000000000 ) ) ;
#132 = DIRECTION ( 'NONE',  ( 1.000000000000000000, 0.0000000000000000000, 0.0000000000000000000 ) ) ;
#133 = PERSON_AND_ORGANIZATION_ROLE ( 'creator' ) ;
#134 = COORDINATED_UNIVERSAL_TIME_OFFSET ( 2, 0, .AHEAD. ) ;
#135 = DIRECTION ( 'NONE',  ( 1.000000000000000000, 0.0000000000000000000, 0.0000000000000000000 ) ) ;
#136 = APPROVAL ( #19, 'UNSPECIFIED' ) ;
#137 = DIRECTION ( 'NONE',  ( 1.000000000000000000, 0.0000000000000000000, 0.0000000000000000000 ) ) ;
#138 = APPLICATION_CONTEXT ( 'configuration controlled 3d designs of mechanical parts and assemblies' ) ;
#139 = PERSON_AND_ORGANIZATION ( #201, #188 ) ;
#140 = EDGE_CURVE ( 'NONE', #142, #91, #38, .T. ) ;
#141 = COORDINATED_UNIVERSAL_TIME_OFFSET ( 2, 0, .AHEAD. ) ;
#142 = VERTEX_POINT ( 'NONE', #27 ) ;
#143 = AXIS2_PLACEMENT_3D ( 'NONE', #9, #152, #109 ) ;
#144 = LOCAL_TIME ( 8, 44, 40.00000000000000000, #231 ) ;
#145 = ORIENTED_EDGE ( 'NONE', *, *, #198, .F. ) ;
#146 = CC_DESIGN_APPROVAL ( #136, ( #39 ) ) ;
#147 = CARTESIAN_POINT ( 'NONE',  ( -4.258975310473518400, -4.284349706834070100, -0.02652517035000752000 ) ) ;
#148 = ORIENTED_EDGE ( 'NONE', *, *, #202, .T. ) ;
#149 = CARTESIAN_POINT ( 'NONE',  ( -2.550043509685906400E-013, 12.85239225750812300, 0.07957144429463905400 ) ) ;
#150 = DIRECTION ( 'NONE',  ( 0.0000000000000000000, 0.0000000000000000000, 1.000000000000000000 ) ) ;
#151 = EDGE_CURVE ( 'NONE', #42, #60, #120, .T. ) ;
#152 = DIRECTION ( 'NONE',  ( 0.0000000000000000000, 0.0000000000000000000, 1.000000000000000000 ) ) ;
#153 = PERSON_AND_ORGANIZATION ( #201, #188 ) ;
#154 = LINE ( 'NONE', #13, #178 ) ;
#155 = CARTESIAN_POINT ( 'NONE',  ( 0.0000000000000000000, 1.136868377216160000E-013, 1038.000000000000000 ) ) ;
#156 = DIRECTION ( 'NONE',  ( 0.0000000000000000000, 0.0000000000000000000, 1.000000000000000000 ) ) ;
#157 = ORIENTED_EDGE ( 'NONE', *, *, #68, .T. ) ;
#158 = FACE_OUTER_BOUND ( 'NONE', #217, .T. ) ;
#159 = CC_DESIGN_PERSON_AND_ORGANIZATION_ASSIGNMENT ( #37, #48, ( #39 ) ) ;
#160 = CARTESIAN_POINT ( 'NONE',  ( -12.69999999999999900, 3.997792089092478900E-015, 0.07769558603279890000 ) ) ;
#161 = CARTESIAN_POINT ( 'NONE',  ( 12.77652264755428000, 4.284349706834170500, 0.05210755728804741100 ) ) ;
#162 = COORDINATED_UNIVERSAL_TIME_OFFSET ( 2, 0, .AHEAD. ) ;
#163 = ORIENTED_EDGE ( 'NONE', *, *, #121, .T. ) ;
#164 = CARTESIAN_POINT ( 'NONE',  ( 8.517869963562526800, 4.284349706834171400, -0.0003139302078594179600 ) ) ;
#165 = CARTESIAN_POINT ( 'NONE',  ( 4.258540000920699100, 12.85239225750812500, 0.07957144429471262000 ) ) ;
#166 = CYLINDRICAL_SURFACE ( 'NONE', #143, 12.69999999999999900 ) ;
#167 = CARTESIAN_POINT ( 'NONE',  ( -12.77521676011602000, -12.85239225750802200, 0.1581961348873228700 ) ) ;
#168 = CARTESIAN_POINT ( 'NONE',  ( -12.77521676011602000, 12.85239225750812300, 0.1581961348873228700 ) ) ;
#169 = APPROVAL ( #212, 'UNSPECIFIED' ) ;
#170 = PERSON_AND_ORGANIZATION ( #201, #188 ) ;
#171 = CARTESIAN_POINT ( 'NONE',  ( -2.550043509685906400E-013, -4.284349706834070100, -0.02652517035000855800 ) ) ;
#172 =( LENGTH_UNIT ( ) NAMED_UNIT ( * ) SI_UNIT ( .MILLI., .METRE. ) );
#173 = CIRCLE ( 'NONE', #190, 12.69999999999999900 ) ;
#174 = CARTESIAN_POINT ( 'NONE',  ( 0.0000000000000000000, 0.0000000000000000000, 0.0000000000000000000 ) ) ;
#175 = LOCAL_TIME ( 8, 44, 40.00000000000000000, #134 ) ;
#176 = AXIS2_PLACEMENT_3D ( 'NONE', #155, #135, #17 ) ;
#177 = PERSON_AND_ORGANIZATION ( #201, #188 ) ;
#178 = VECTOR ( 'NONE', #10, 1000.000000000000000 ) ;
#179 = MANIFOLD_SOLID_BREP ( 'Imported1', #107 ) ;
#180 = CC_DESIGN_APPROVAL ( #169, ( #104 ) ) ;
#181 = CALENDAR_DATE ( 2018, 21, 12 ) ;
#182 = CARTESIAN_POINT ( 'NONE',  ( 0.0000000000000000000, 12.70000000000186100, 0.07769558603294929300 ) ) ;
#183 = CARTESIAN_POINT ( 'NONE',  ( 0.0000000000000000000, 12.85239225750812300, 0.07957144429471263400 ) ) ;
#184 = CARTESIAN_POINT ( 'NONE',  ( 0.0000000000000000000, -12.85239225750802200, 0.07957144429471263400 ) ) ;
#185 = CARTESIAN_POINT ( 'NONE',  ( 12.77652264755428000, -4.284349706834070100, 0.05210755728804634900 ) ) ;
#186 = ORIENTED_EDGE ( 'NONE', *, *, #12, .T. ) ;
#187 = CARTESIAN_POINT ( 'NONE',  ( -2.550043509685906400E-013, -12.85239225750802200, 0.07957144429463905400 ) ) ;
#188 = ORGANIZATION ( 'UNSPECIFIED', 'UNSPECIFIED', '' ) ;
#189 = CARTESIAN_POINT ( 'NONE',  ( 4.996003610813200500E-016, 2.442490654175340100E-015, 3.000000000000000000 ) ) ;
#190 = AXIS2_PLACEMENT_3D ( 'NONE', #213, #65, #137 ) ;
#191 = DIRECTION ( 'NONE',  ( 1.000000000000000000, 0.0000000000000000000, -0.0000000000000000000 ) ) ;
#192 =( NAMED_UNIT ( * ) PLANE_ANGLE_UNIT ( ) SI_UNIT ( $, .RADIAN. ) );
#193 = ORIENTED_EDGE ( 'NONE', *, *, #7, .T. ) ;
#194 = DIRECTION ( 'NONE',  ( -0.0000000000000000000, -0.0000000000000000000, -1.000000000000000000 ) ) ;
#195 = CC_DESIGN_SECURITY_CLASSIFICATION ( #104, ( #39 ) ) ;
#196 = APPROVAL_PERSON_ORGANIZATION ( #170, #28, #214 ) ;
#197 = ORIENTED_EDGE ( 'NONE', *, *, #198, .T. ) ;
#198 = EDGE_CURVE ( 'NONE', #42, #105, #173, .T. ) ;
#199 = FACE_OUTER_BOUND ( 'NONE', #203, .T. ) ;
#200 = DIRECTION ( 'NONE',  ( -0.0000000000000000000, -0.0000000000000000000, -1.000000000000000000 ) ) ;
#201 = PERSON ( 'UNSPECIFIED', 'UNSPECIFIED', 'UNSPECIFIED', ('UNSPECIFIED'), ('UNSPECIFIED'), ('UNSPECIFIED') ) ;
#202 = EDGE_CURVE ( 'NONE', #105, #60, #79, .T. ) ;
#203 = EDGE_LOOP ( 'NONE', ( #15, #193, #157, #23, #8 ) ) ;
#204 = CARTESIAN_POINT ( 'NONE',  ( 8.516999352701237300, -12.85239225750802400, 0.1057800053878637400 ) ) ;
#205 = AXIS2_PLACEMENT_3D ( 'NONE', #189, #96, #131 ) ;
#206 = CARTESIAN_POINT ( 'NONE',  ( 4.258540000920699100, -12.85239225750802400, 0.07957144429471262000 ) ) ;
#207 = CARTESIAN_POINT ( 'NONE',  ( -4.258540000920881100, 12.85239225750812500, 0.07957144429464010900 ) ) ;
#208 = PRODUCT_RELATED_PRODUCT_CATEGORY ( 'detail', '', ( #56 ) ) ;
#209 = CARTESIAN_POINT ( 'NONE',  ( 4.996003610813200500E-016, 2.442490654175340100E-015, 3.000000000000000000 ) ) ;
#210 = CYLINDRICAL_SURFACE ( 'NONE', #59, 12.69999999999999900 ) ;
#211 = MECHANICAL_CONTEXT ( 'NONE', #138, 'mechanical' ) ;
#212 = APPROVAL_STATUS ( 'not_yet_approved' ) ;
#213 = CARTESIAN_POINT ( 'NONE',  ( 4.996003610813200500E-016, 2.442490654175340100E-015, 0.07769558603279890000 ) ) ;
#214 = APPROVAL_ROLE ( '' ) ;
#215 = AXIS2_PLACEMENT_3D ( 'NONE', #98, #194, #132 ) ;
#216 = APPROVAL_DATE_TIME ( #50, #169 ) ;
#217 = EDGE_LOOP ( 'NONE', ( #232, #145, #66, #163, #122 ) ) ;
#218 = CIRCLE ( 'NONE', #234, 12.69999999999999900 ) ;
#219 = DIRECTION ( 'NONE',  ( 1.000000000000000000, 0.0000000000000000000, 0.0000000000000000000 ) ) ;
#220 = FACE_OUTER_BOUND ( 'NONE', #21, .T. ) ;
#221 = CARTESIAN_POINT ( 'NONE',  ( 4.996003610813200500E-016, 2.442490654175340100E-015, 0.07769558603279890000 ) ) ;
#222 = CALENDAR_DATE ( 2018, 21, 12 ) ;
#223 = LINE ( 'NONE', #160, #112 ) ;
#224 = CARTESIAN_POINT ( 'NONE',  ( -8.516999352701345700, -12.85239225750802400, 0.1057800053877907800 ) ) ;
#225 = CARTESIAN_POINT ( 'NONE',  ( -8.516999352701345700, 12.85239225750812500, 0.1057800053877907800 ) ) ;
#226 = CARTESIAN_POINT ( 'NONE',  ( -12.69999999999999900, 3.997792089092478900E-015, 0.07769558603279890000 ) ) ;
#227 = DATE_TIME_ROLE ( 'classification_date' ) ;
#228 =( BOUNDED_SURFACE ( )  B_SPLINE_SURFACE ( 3, 3, ( 
 ( #167, #224, #58, #187 ),
 ( #76, #62, #147, #171 ),
 ( #75, #108, #43, #127 ),
 ( #168, #225, #207, #149 ) ),
 .UNSPECIFIED., .F., .F., .F. ) 
 B_SPLINE_SURFACE_WITH_KNOTS ( ( 4, 4 ),
 ( 4, 4 ),
 ( 0.0000000000000000000, 1.000000000000000000 ),
 ( 0.0000000000000000000, 1.000000000000000000 ),
 .UNSPECIFIED. ) 
 GEOMETRIC_REPRESENTATION_ITEM ( )  RATIONAL_B_SPLINE_SURFACE ( (
 ( 1.000000000000000000, 0.9999873745242663400, 0.9999873745242663400, 1.000000000000000000),
 ( 0.9999488943838825700, 0.9999362695533816600, 0.9999362695533816600, 0.9999488943838825700),
 ( 0.9999488943838825700, 0.9999362695533816600, 0.9999362695533816600, 0.9999488943838825700),
 ( 1.000000000000000000, 0.9999873745242663400, 0.9999873745242663400, 1.000000000000000000) ) ) 
 REPRESENTATION_ITEM ( '' )  SURFACE ( )  );
#229 = DIRECTION ( 'NONE',  ( 1.000000000000000000, 0.0000000000000000000, 0.0000000000000000000 ) ) ;
#230 = EDGE_CURVE ( 'NONE', #73, #42, #218, .T. ) ;
#231 = COORDINATED_UNIVERSAL_TIME_OFFSET ( 2, 0, .AHEAD. ) ;
#232 = ORIENTED_EDGE ( 'NONE', *, *, #7, .F. ) ;
#233 = PERSON_AND_ORGANIZATION_ROLE ( 'design_supplier' ) ;
#234 = AXIS2_PLACEMENT_3D ( 'NONE', #113, #63, #32 ) ;
#235 = APPROVAL_PERSON_ORGANIZATION ( #6, #169, #80 ) ;
ENDSEC;
END-ISO-10303-21;
