ISO-10303-21;
HEADER;
FILE_DESCRIPTION (( 'STEP AP203' ),
    '1' );
FILE_NAME ('110-0269E BK7 pl-cx 25.4 F1750.STEP',
    '2019-10-01T07:17:30',
    ( '' ),
    ( '' ),
    'SwSTEP 2.0',
    'SolidWorks 2019',
    '' );
FILE_SCHEMA (( 'CONFIG_CONTROL_DESIGN' ));
ENDSEC;

DATA;
#1 = ADVANCED_FACE ( 'NONE', ( #139 ), #163, .T. ) ;
#2 = ORIENTED_EDGE ( 'NONE', *, *, #15, .T. ) ;
#3 = CARTESIAN_POINT ( 'NONE',  ( 12.70000000000000107, -12.70000000000000107, 3.000000000000001332 ) ) ;
#4 = CC_DESIGN_PERSON_AND_ORGANIZATION_ASSIGNMENT ( #39, #67, ( #97 ) ) ;
#5 = MANIFOLD_SOLID_BREP ( '110-0269E.STP', #172 ) ;
#6 = DIRECTION ( 'NONE',  ( 0.0000000000000000000, 0.0000000000000000000, 1.000000000000000000 ) ) ;
#7 = DATE_TIME_ROLE ( 'creation_date' ) ;
#8 = CARTESIAN_POINT ( 'NONE',  ( -12.69999999999999929, 1.555301434917139813E-15, 3.000000000000000000 ) ) ;
#9 = SHAPE_DEFINITION_REPRESENTATION ( #30, #18 ) ;
#10 = DIRECTION ( 'NONE',  ( 0.0000000000000000000, 0.0000000000000000000, 1.000000000000000000 ) ) ;
#11 = PERSON ( 'UNSPECIFIED', 'UNSPECIFIED', 'UNSPECIFIED', ('UNSPECIFIED'), ('UNSPECIFIED'), ('UNSPECIFIED') ) ;
#12 = CC_DESIGN_PERSON_AND_ORGANIZATION_ASSIGNMENT ( #51, #158, ( #41 ) ) ;
#13 = COORDINATED_UNIVERSAL_TIME_OFFSET ( 2, 0, .AHEAD. ) ;
#14 = LOCAL_TIME ( 10, 17, 30.00000000000000000, #135 ) ;
#15 = EDGE_CURVE ( 'NONE', #177, #43, #159, .T. ) ;
#16 = CALENDAR_DATE ( 2019, 1, 10 ) ;
#17 = CC_DESIGN_SECURITY_CLASSIFICATION ( #41, ( #57 ) ) ;
#18 = ADVANCED_BREP_SHAPE_REPRESENTATION ( '110-0269E BK7 pl-cx 25.4 F1750', ( #5, #166 ), #62 ) ;
#19 = CARTESIAN_POINT ( 'NONE',  ( -12.70000000000013252, -12.69999999999999929, 0.08883999369050310513 ) ) ;
#20 = LOCAL_TIME ( 10, 17, 30.00000000000000000, #115 ) ;
#21 = FACE_OUTER_BOUND ( 'NONE', #33, .T. ) ;
#22 = CARTESIAN_POINT ( 'NONE',  ( 12.69999999999999929, 2.696301922142130194E-30, 0.08883999369050310513 ) ) ;
#23 = FACE_OUTER_BOUND ( 'NONE', #72, .T. ) ;
#24 = APPROVAL_STATUS ( 'not_yet_approved' ) ;
#25 = CARTESIAN_POINT ( 'NONE',  ( 12.70000000000000107, -12.70000000000000107, 0.08883999369050311901 ) ) ;
#26 = EDGE_CURVE ( 'NONE', #111, #177, #167, .T. ) ;
#27 = APPLICATION_PROTOCOL_DEFINITION ( 'international standard', 'config_control_design', 1994, #121 ) ;
#28 = DIRECTION ( 'NONE',  ( 0.0000000000000000000, 0.0000000000000000000, 1.000000000000000000 ) ) ;
#29 = VECTOR ( 'NONE', #114, 1000.000000000000000 ) ;
#30 = PRODUCT_DEFINITION_SHAPE ( 'NONE', 'NONE',  #97 ) ;
#31 = EDGE_CURVE ( 'NONE', #60, #43, #49, .T. ) ;
#32 = ORIENTED_EDGE ( 'NONE', *, *, #31, .T. ) ;
#33 = EDGE_LOOP ( 'NONE', ( #2, #56 ) ) ;
#34 = CARTESIAN_POINT ( 'NONE',  ( -12.69999999999999929, 1.555301434917139813E-15, 3.000000000000000000 ) ) ;
#35 = LOCAL_TIME ( 10, 17, 30.00000000000000000, #53 ) ;
#36 = PERSON_AND_ORGANIZATION_ROLE ( 'creator' ) ;
#37 = APPROVAL ( #170, 'UNSPECIFIED' ) ;
#38 = AXIS2_PLACEMENT_3D ( 'NONE', #63, #10, #107 ) ;
#39 = PERSON_AND_ORGANIZATION ( #11, #161 ) ;
#40 = AXIS2_PLACEMENT_3D ( 'NONE', #47, #108, #74 ) ;
#41 = SECURITY_CLASSIFICATION ( '', '', #119 ) ;
#42 = EDGE_LOOP ( 'NONE', ( #58, #124 ) ) ;
#43 = VERTEX_POINT ( 'NONE', #34 ) ;
#44 = CARTESIAN_POINT ( 'NONE',  ( -12.69999999999986962, 12.70000000000000284, 0.08883999369050310513 ) ) ;
#45 = DIRECTION ( 'NONE',  ( -2.560791010163660003E-16, -1.000000000000000000, 0.0000000000000000000 ) ) ;
#46 = CALENDAR_DATE ( 2019, 1, 10 ) ;
#47 = CARTESIAN_POINT ( 'NONE',  ( 0.0000000000000000000, 26.11199999999999832, 3.000000000000000000 ) ) ;
#48 = PERSON_AND_ORGANIZATION ( #11, #161 ) ;
#49 = LINE ( 'NONE', #77, #29 ) ;
#50 = VECTOR ( 'NONE', #6, 1000.000000000000000 ) ;
#51 = PERSON_AND_ORGANIZATION ( #11, #161 ) ;
#52 =( BOUNDED_CURVE ( )  B_SPLINE_CURVE ( 2, ( #90, #19, #73, #25, #169 ),
 .UNSPECIFIED., .F., .T. ) 
 B_SPLINE_CURVE_WITH_KNOTS ( ( 3, 2, 3 ),
 ( 3.141592653589778461, 4.712388980384684345, 6.283185307179590673 ),
 .UNSPECIFIED. ) 
 CURVE ( )  GEOMETRIC_REPRESENTATION_ITEM ( )  RATIONAL_B_SPLINE_CURVE ( ( 1.000000000000002220, 0.7071067811865459074, 1.000000000000000000, 0.7071067811865480168, 1.000000000000000000 ) ) 
 REPRESENTATION_ITEM ( '' )  );
#53 = COORDINATED_UNIVERSAL_TIME_OFFSET ( 2, 0, .AHEAD. ) ;
#54 = APPROVAL_DATE_TIME ( #94, #146 ) ;
#55 = DESIGN_CONTEXT ( 'detailed design', #128, 'design' ) ;
#56 = ORIENTED_EDGE ( 'NONE', *, *, #120, .T. ) ;
#57 = PRODUCT_DEFINITION_FORMATION_WITH_SPECIFIED_SOURCE ( 'ANY', '', #151, .NOT_KNOWN. ) ;
#58 = ORIENTED_EDGE ( 'NONE', *, *, #82, .F. ) ;
#59 = CARTESIAN_POINT ( 'NONE',  ( 12.70000000000000107, 12.70000000000000107, 0.08883999369050311901 ) ) ;
#60 = VERTEX_POINT ( 'NONE', #144 ) ;
#61 = DIRECTION ( 'NONE',  ( -2.213044600385660069E-16, 5.667144717758827440E-32, -1.000000000000000000 ) ) ;
#62 =( GEOMETRIC_REPRESENTATION_CONTEXT ( 3 ) GLOBAL_UNCERTAINTY_ASSIGNED_CONTEXT ( ( #101 ) ) GLOBAL_UNIT_ASSIGNED_CONTEXT ( ( #79, #86, #112 ) ) REPRESENTATION_CONTEXT ( 'NONE', 'WORKASPACE' ) );
#63 = CARTESIAN_POINT ( 'NONE',  ( 4.996003610813200488E-16, 1.776356839400249676E-15, 0.08883999369050310513 ) ) ;
#64 = APPROVAL ( #24, 'UNSPECIFIED' ) ;
#65 = PERSON_AND_ORGANIZATION ( #11, #161 ) ;
#66 = CARTESIAN_POINT ( 'NONE',  ( 4.996003610813200488E-16, 1.776356839400249676E-15, 0.08883999369050310513 ) ) ;
#67 = PERSON_AND_ORGANIZATION_ROLE ( 'creator' ) ;
#68 = CYLINDRICAL_SURFACE ( 'NONE', #38, 12.69999999999999929 ) ;
#69 = DATE_AND_TIME ( #176, #178 ) ;
#70 = CC_DESIGN_APPROVAL ( #64, ( #57 ) ) ;
#71 = CC_DESIGN_PERSON_AND_ORGANIZATION_ASSIGNMENT ( #117, #145, ( #151 ) ) ;
#72 = EDGE_LOOP ( 'NONE', ( #153, #85, #88, #179 ) ) ;
#73 = CARTESIAN_POINT ( 'NONE',  ( -2.332952152375710015E-15, -12.69999999999999929, 0.08883999369050310513 ) ) ;
#74 = DIRECTION ( 'NONE',  ( 1.000000000000000000, 0.0000000000000000000, 0.0000000000000000000 ) ) ;
#75 = CARTESIAN_POINT ( 'NONE',  ( -12.69999999999999929, 1.555301434917139813E-15, 0.08883999369050310513 ) ) ;
#76 = PERSON_AND_ORGANIZATION ( #11, #161 ) ;
#77 = CARTESIAN_POINT ( 'NONE',  ( -12.69999999999999929, 5.108015113717634629E-15, 0.08883999369050310513 ) ) ;
#78 = APPROVAL_ROLE ( '' ) ;
#79 =( LENGTH_UNIT ( ) NAMED_UNIT ( * ) SI_UNIT ( .MILLI., .METRE. ) );
#80 = DATE_AND_TIME ( #130, #99 ) ;
#81 = APPROVAL_PERSON_ORGANIZATION ( #76, #37, #143 ) ;
#82 = EDGE_CURVE ( 'NONE', #111, #60, #137, .T. ) ;
#83 = APPROVAL_STATUS ( 'not_yet_approved' ) ;
#84 = EDGE_CURVE ( 'NONE', #60, #111, #52, .T. ) ;
#85 = ORIENTED_EDGE ( 'NONE', *, *, #84, .T. ) ;
#86 =( NAMED_UNIT ( * ) PLANE_ANGLE_UNIT ( ) SI_UNIT ( $, .RADIAN. ) );
#87 =( BOUNDED_CURVE ( )  B_SPLINE_CURVE ( 2, ( #129, #92, #142, #3, #113 ),
 .UNSPECIFIED., .F., .F. ) 
 B_SPLINE_CURVE_WITH_KNOTS ( ( 3, 2, 3 ),
 ( 3.141592653589778461, 4.712388980384684345, 6.283185307179590673 ),
 .UNSPECIFIED. ) 
 CURVE ( )  GEOMETRIC_REPRESENTATION_ITEM ( )  RATIONAL_B_SPLINE_CURVE ( ( 1.000000000000002220, 0.7071067811865459074, 1.000000000000000000, 0.7071067811865480168, 1.000000000000000000 ) ) 
 REPRESENTATION_ITEM ( '' )  );
#88 = ORIENTED_EDGE ( 'NONE', *, *, #26, .T. ) ;
#89 = AXIS2_PLACEMENT_3D ( 'NONE', #127, #61, #45 ) ;
#90 = CARTESIAN_POINT ( 'NONE',  ( -12.69999999999999929, 1.555301434917139813E-15, 0.08883999369050310513 ) ) ;
#91 = CARTESIAN_POINT ( 'NONE',  ( 12.70000000000000107, 12.70000000000000107, 3.000000000000001332 ) ) ;
#92 = CARTESIAN_POINT ( 'NONE',  ( -12.70000000000013252, -12.69999999999999929, 3.000000000000000888 ) ) ;
#93 = DIRECTION ( 'NONE',  ( 1.000000000000000000, 0.0000000000000000000, 0.0000000000000000000 ) ) ;
#94 = DATE_AND_TIME ( #133, #20 ) ;
#95 = DATE_AND_TIME ( #46, #35 ) ;
#96 = APPROVAL_PERSON_ORGANIZATION ( #175, #64, #78 ) ;
#97 = PRODUCT_DEFINITION ( 'UNKNOWN', '', #57, #55 ) ;
#98 = APPROVAL_ROLE ( '' ) ;
#99 = LOCAL_TIME ( 10, 17, 30.00000000000000000, #123 ) ;
#100 = PRODUCT_RELATED_PRODUCT_CATEGORY ( 'detail', '', ( #151 ) ) ;
#101 = UNCERTAINTY_MEASURE_WITH_UNIT (LENGTH_MEASURE( 1.000000000000000082E-05 ), #79, 'distance_accuracy_value', 'NONE');
#102 = ADVANCED_FACE ( 'NONE', ( #106 ), #68, .T. ) ;
#103 = ORIENTED_EDGE ( 'NONE', *, *, #15, .F. ) ;
#104 = EDGE_LOOP ( 'NONE', ( #126, #32, #103, #125 ) ) ;
#105 = APPROVAL_PERSON_ORGANIZATION ( #65, #146, #98 ) ;
#106 = FACE_OUTER_BOUND ( 'NONE', #104, .T. ) ;
#107 = DIRECTION ( 'NONE',  ( 1.000000000000000000, -1.398706172756100243E-16, 0.0000000000000000000 ) ) ;
#108 = DIRECTION ( 'NONE',  ( 0.0000000000000000000, 0.0000000000000000000, 1.000000000000000000 ) ) ;
#109 = DATE_AND_TIME ( #16, #14 ) ;
#110 = PERSON_AND_ORGANIZATION ( #11, #161 ) ;
#111 = VERTEX_POINT ( 'NONE', #155 ) ;
#112 =( NAMED_UNIT ( * ) SI_UNIT ( $, .STERADIAN. ) SOLID_ANGLE_UNIT ( ) );
#113 = CARTESIAN_POINT ( 'NONE',  ( 12.69999999999999929, 0.0000000000000000000, 3.000000000000000000 ) ) ;
#114 = DIRECTION ( 'NONE',  ( 0.0000000000000000000, 0.0000000000000000000, 1.000000000000000000 ) ) ;
#115 = COORDINATED_UNIVERSAL_TIME_OFFSET ( 2, 0, .AHEAD. ) ;
#116 = DIRECTION ( 'NONE',  ( 1.000000000000000000, -1.398706172756100243E-16, 0.0000000000000000000 ) ) ;
#117 = PERSON_AND_ORGANIZATION ( #11, #161 ) ;
#118 = CARTESIAN_POINT ( 'NONE',  ( 12.69999999999999929, 0.0000000000000000000, 3.000000000000000000 ) ) ;
#119 = SECURITY_CLASSIFICATION_LEVEL ( 'unclassified' ) ;
#120 = EDGE_CURVE ( 'NONE', #43, #177, #87, .T. ) ;
#121 = APPLICATION_CONTEXT ( 'configuration controlled 3d designs of mechanical parts and assemblies' ) ;
#122 = CC_DESIGN_APPROVAL ( #146, ( #41 ) ) ;
#123 = COORDINATED_UNIVERSAL_TIME_OFFSET ( 2, 0, .AHEAD. ) ;
#124 = ORIENTED_EDGE ( 'NONE', *, *, #84, .F. ) ;
#125 = ORIENTED_EDGE ( 'NONE', *, *, #26, .F. ) ;
#126 = ORIENTED_EDGE ( 'NONE', *, *, #82, .T. ) ;
#127 = CARTESIAN_POINT ( 'NONE',  ( 0.0000000000000000000, 1.136868377216159793E-13, 907.8000000000000682 ) ) ;
#128 = APPLICATION_CONTEXT ( 'configuration controlled 3d designs of mechanical parts and assemblies' ) ;
#129 = CARTESIAN_POINT ( 'NONE',  ( -12.69999999999999929, 1.555301434917139813E-15, 3.000000000000000000 ) ) ;
#130 = CALENDAR_DATE ( 2019, 1, 10 ) ;
#131 = CARTESIAN_POINT ( 'NONE',  ( 7.776507174585690191E-16, 12.69999999999999929, 0.08883999369050310513 ) ) ;
#132 = ADVANCED_FACE ( 'NONE', ( #23 ), #140, .T. ) ;
#133 = CALENDAR_DATE ( 2019, 1, 10 ) ;
#134 = CARTESIAN_POINT ( 'NONE',  ( 0.0000000000000000000, 0.0000000000000000000, 0.0000000000000000000 ) ) ;
#135 = COORDINATED_UNIVERSAL_TIME_OFFSET ( 2, 0, .AHEAD. ) ;
#136 = APPROVAL_DATE_TIME ( #95, #64 ) ;
#137 =( BOUNDED_CURVE ( )  B_SPLINE_CURVE ( 2, ( #138, #59, #131, #44, #75 ),
 .UNSPECIFIED., .F., .T. ) 
 B_SPLINE_CURVE_WITH_KNOTS ( ( 3, 2, 3 ),
 ( 0.0000000000000000000, 1.570796326794894116, 3.141592653589778905 ),
 .UNSPECIFIED. ) 
 CURVE ( )  GEOMETRIC_REPRESENTATION_ITEM ( )  RATIONAL_B_SPLINE_CURVE ( ( 1.000000000000000000, 0.7071067811865480168, 1.000000000000000000, 0.7071067811865501263, 0.9999999999999978906 ) ) 
 REPRESENTATION_ITEM ( '' )  );
#138 = CARTESIAN_POINT ( 'NONE',  ( 12.69999999999999929, 0.0000000000000000000, 0.08883999369050310513 ) ) ;
#139 = FACE_OUTER_BOUND ( 'NONE', #42, .T. ) ;
#140 = CYLINDRICAL_SURFACE ( 'NONE', #152, 12.69999999999999929 ) ;
#141 = CARTESIAN_POINT ( 'NONE',  ( -12.69999999999986962, 12.70000000000000284, 3.000000000000001776 ) ) ;
#142 = CARTESIAN_POINT ( 'NONE',  ( -2.332952152375710015E-15, -12.69999999999999929, 3.000000000000000000 ) ) ;
#143 = APPROVAL_ROLE ( '' ) ;
#144 = CARTESIAN_POINT ( 'NONE',  ( -12.69999999999999929, 1.555301434917139813E-15, 0.08883999369050310513 ) ) ;
#145 = PERSON_AND_ORGANIZATION_ROLE ( 'design_owner' ) ;
#146 = APPROVAL ( #83, 'UNSPECIFIED' ) ;
#147 = CC_DESIGN_PERSON_AND_ORGANIZATION_ASSIGNMENT ( #110, #162, ( #57 ) ) ;
#148 = CC_DESIGN_DATE_AND_TIME_ASSIGNMENT ( #109, #156, ( #41 ) ) ;
#149 = ADVANCED_FACE ( 'NONE', ( #21 ), #150, .T. ) ;
#150 = PLANE ( 'NONE',  #40 ) ;
#151 = PRODUCT ( '110-0269E BK7 pl-cx 25.4 F1750', '110-0269E BK7 pl-cx 25.4 F1750', '', ( #160 ) ) ;
#152 = AXIS2_PLACEMENT_3D ( 'NONE', #66, #171, #116 ) ;
#153 = ORIENTED_EDGE ( 'NONE', *, *, #31, .F. ) ;
#154 = CARTESIAN_POINT ( 'NONE',  ( 7.776507174585690191E-16, 12.69999999999999929, 3.000000000000000000 ) ) ;
#155 = CARTESIAN_POINT ( 'NONE',  ( 12.69999999999999929, 0.0000000000000000000, 0.08883999369050310513 ) ) ;
#156 = DATE_TIME_ROLE ( 'classification_date' ) ;
#157 = CARTESIAN_POINT ( 'NONE',  ( 12.69999999999999929, 0.0000000000000000000, 3.000000000000000000 ) ) ;
#158 = PERSON_AND_ORGANIZATION_ROLE ( 'classification_officer' ) ;
#159 =( BOUNDED_CURVE ( )  B_SPLINE_CURVE ( 2, ( #118, #91, #154, #141, #8 ),
 .UNSPECIFIED., .F., .T. ) 
 B_SPLINE_CURVE_WITH_KNOTS ( ( 3, 2, 3 ),
 ( 0.0000000000000000000, 1.570796326794894116, 3.141592653589778905 ),
 .UNSPECIFIED. ) 
 CURVE ( )  GEOMETRIC_REPRESENTATION_ITEM ( )  RATIONAL_B_SPLINE_CURVE ( ( 1.000000000000000000, 0.7071067811865480168, 1.000000000000000000, 0.7071067811865501263, 0.9999999999999978906 ) ) 
 REPRESENTATION_ITEM ( '' )  );
#160 = MECHANICAL_CONTEXT ( 'NONE', #121, 'mechanical' ) ;
#161 = ORGANIZATION ( 'UNSPECIFIED', 'UNSPECIFIED', '' ) ;
#162 = PERSON_AND_ORGANIZATION_ROLE ( 'design_supplier' ) ;
#163 = SPHERICAL_SURFACE ( 'NONE', #89, 907.8000000000000682 ) ;
#164 = CC_DESIGN_APPROVAL ( #37, ( #97 ) ) ;
#165 = CC_DESIGN_DATE_AND_TIME_ASSIGNMENT ( #69, #7, ( #97 ) ) ;
#166 = AXIS2_PLACEMENT_3D ( 'NONE', #134, #28, #93 ) ;
#167 = LINE ( 'NONE', #22, #50 ) ;
#168 = APPLICATION_PROTOCOL_DEFINITION ( 'international standard', 'config_control_design', 1994, #128 ) ;
#169 = CARTESIAN_POINT ( 'NONE',  ( 12.69999999999999929, 0.0000000000000000000, 0.08883999369050310513 ) ) ;
#170 = APPROVAL_STATUS ( 'not_yet_approved' ) ;
#171 = DIRECTION ( 'NONE',  ( 0.0000000000000000000, 0.0000000000000000000, 1.000000000000000000 ) ) ;
#172 = CLOSED_SHELL ( 'NONE', ( #102, #1, #149, #132 ) ) ;
#173 = APPROVAL_DATE_TIME ( #80, #37 ) ;
#174 = CC_DESIGN_PERSON_AND_ORGANIZATION_ASSIGNMENT ( #48, #36, ( #57 ) ) ;
#175 = PERSON_AND_ORGANIZATION ( #11, #161 ) ;
#176 = CALENDAR_DATE ( 2019, 1, 10 ) ;
#177 = VERTEX_POINT ( 'NONE', #157 ) ;
#178 = LOCAL_TIME ( 10, 17, 30.00000000000000000, #13 ) ;
#179 = ORIENTED_EDGE ( 'NONE', *, *, #120, .F. ) ;
ENDSEC;
END-ISO-10303-21;
