ISO-10303-21;
HEADER;
FILE_DESCRIPTION (( 'STEP AP203' ),
    '1' );
FILE_NAME ('110-0268E BK7 pl-cx 25.4 F1600.STEP',
    '2018-12-21T06:45:15',
    ( '' ),
    ( '' ),
    'SwSTEP 2.0',
    'SolidWorks 2017',
    '' );
FILE_SCHEMA (( 'CONFIG_CONTROL_DESIGN' ));
ENDSEC;

DATA;
#1 = ORIENTED_EDGE ( 'NONE', *, *, #130, .T. ) ;
#2 = PERSON_AND_ORGANIZATION ( #107, #202 ) ;
#3 = ORIENTED_EDGE ( 'NONE', *, *, #159, .F. ) ;
#4 = LOCAL_TIME ( 8, 45, 15.00000000000000000, #142 ) ;
#5 = CC_DESIGN_DATE_AND_TIME_ASSIGNMENT ( #54, #141, ( #104 ) ) ;
#6 = CARTESIAN_POINT ( 'NONE',  ( 4.996003610813200500E-016, 2.442490654175340100E-015, 0.09716833836504759600 ) ) ;
#7 = PERSON_AND_ORGANIZATION ( #107, #202 ) ;
#8 = CARTESIAN_POINT ( 'NONE',  ( 12.77466217452149300, -12.85238789028201400, 0.1978403668470764500 ) ) ;
#9 = CIRCLE ( 'NONE', #218, 12.69999999999999900 ) ;
#10 = CARTESIAN_POINT ( 'NONE',  ( -12.69999999999999900, 3.997792089092478900E-015, 3.000000000000000000 ) ) ;
#11 = CALENDAR_DATE ( 2018, 21, 12 ) ;
#12 = CARTESIAN_POINT ( 'NONE',  ( 4.996003610813200500E-016, 2.442490654175340100E-015, 3.000000000000000000 ) ) ;
#13 = CARTESIAN_POINT ( 'NONE',  ( -12.77670464796075900, 4.284471759660355000, 0.06516767090879095600 ) ) ;
#14 = LOCAL_TIME ( 8, 45, 15.00000000000000000, #231 ) ;
#15 = APPROVAL_STATUS ( 'not_yet_approved' ) ;
#16 = ADVANCED_FACE ( 'NONE', ( #24 ), #33, .T. ) ;
#17 = ORIENTED_EDGE ( 'NONE', *, *, #224, .T. ) ;
#18 = AXIS2_PLACEMENT_3D ( 'NONE', #209, #94, #119 ) ;
#19 = CIRCLE ( 'NONE', #166, 830.0000000000001100 ) ;
#20 = CARTESIAN_POINT ( 'NONE',  ( 3.110064573182541600E-013, 12.69999999999961700, 0.09716833836504330800 ) ) ;
#21 = CALENDAR_DATE ( 2018, 21, 12 ) ;
#22 = PRODUCT_DEFINITION_FORMATION_WITH_SPECIFIED_SOURCE ( 'ANY', '', #220, .NOT_KNOWN. ) ;
#23 = DIRECTION ( 'NONE',  ( -0.0000000000000000000, -0.0000000000000000000, -1.000000000000000000 ) ) ;
#24 = FACE_OUTER_BOUND ( 'NONE', #206, .T. ) ;
#25 = DIRECTION ( 'NONE',  ( 1.000000000000000000, 1.776356839400250500E-015, 0.0000000000000000000 ) ) ;
#26 = DIRECTION ( 'NONE',  ( -0.0000000000000000000, -0.0000000000000000000, -1.000000000000000000 ) ) ;
#27 = CARTESIAN_POINT ( 'NONE',  ( -8.516735761720518400, 12.85238789028191100, 0.1322903187349675200 ) ) ;
#28 = CARTESIAN_POINT ( 'NONE',  ( 12.77670464796015500, -4.284471759660457100, 0.06516767090875347200 ) ) ;
#29 = CARTESIAN_POINT ( 'NONE',  ( 4.259111806884453300, -4.284471759660458900, -0.03317409292621965900 ) ) ;
#30 = CC_DESIGN_APPROVAL ( #181, ( #22 ) ) ;
#31 =( BOUNDED_SURFACE ( )  B_SPLINE_SURFACE ( 3, 3, ( 
 ( #230, #57, #189, #78 ),
 ( #40, #117, #60, #91 ),
 ( #13, #207, #226, #92 ),
 ( #133, #27, #137, #153 ) ),
 .UNSPECIFIED., .F., .F., .F. ) 
 B_SPLINE_SURFACE_WITH_KNOTS ( ( 4, 4 ),
 ( 4, 4 ),
 ( 0.0000000000000000000, 1.000000000000000000 ),
 ( 0.0000000000000000000, 1.000000000000000000 ),
 .UNSPECIFIED. ) 
 GEOMETRIC_REPRESENTATION_ITEM ( )  RATIONAL_B_SPLINE_SURFACE ( (
 ( 1.000000000000000000, 0.9999802531546567700, 0.9999802531546567700, 1.000000000000000000),
 ( 0.9999200688161886700, 0.9999003235492341900, 0.9999003235492341900, 0.9999200688161886700),
 ( 0.9999200688161886700, 0.9999003235492341900, 0.9999003235492341900, 0.9999200688161886700),
 ( 1.000000000000000000, 0.9999802531546567700, 0.9999802531546567700, 1.000000000000000000) ) ) 
 REPRESENTATION_ITEM ( '' )  SURFACE ( )  );
#32 = ORIENTED_EDGE ( 'NONE', *, *, #199, .F. ) ;
#33 = CYLINDRICAL_SURFACE ( 'NONE', #63, 12.69999999999999900 ) ;
#34 = APPROVAL_PERSON_ORGANIZATION ( #43, #229, #62 ) ;
#35 = ORIENTED_EDGE ( 'NONE', *, *, #130, .F. ) ;
#36 = DIRECTION ( 'NONE',  ( 1.000000000000000000, 0.0000000000000000000, 0.0000000000000000000 ) ) ;
#37 = EDGE_LOOP ( 'NONE', ( #55, #82, #101 ) ) ;
#38 = CARTESIAN_POINT ( 'NONE',  ( 3.133950500337424700E-013, 4.284471759660358500, -0.03317409292621964500 ) ) ;
#39 = PERSON_AND_ORGANIZATION ( #107, #202 ) ;
#40 = CARTESIAN_POINT ( 'NONE',  ( -12.77670464796075600, -4.284471759660464200, 0.06516767090878990100 ) ) ;
#41 = ORIENTED_EDGE ( 'NONE', *, *, #76, .F. ) ;
#42 = CARTESIAN_POINT ( 'NONE',  ( 0.0000000000000000000, 0.0000000000000000000, 0.0000000000000000000 ) ) ;
#43 = PERSON_AND_ORGANIZATION ( #107, #202 ) ;
#44 = APPLICATION_PROTOCOL_DEFINITION ( 'international standard', 'config_control_design', 1994, #177 ) ;
#45 =( LENGTH_UNIT ( ) NAMED_UNIT ( * ) SI_UNIT ( .MILLI., .METRE. ) );
#46 = APPROVAL_STATUS ( 'not_yet_approved' ) ;
#47 = CALENDAR_DATE ( 2018, 21, 12 ) ;
#48 = LINE ( 'NONE', #53, #185 ) ;
#49 = VERTEX_POINT ( 'NONE', #131 ) ;
#50 = EDGE_CURVE ( 'NONE', #219, #223, #163, .T. ) ;
#51 = DIRECTION ( 'NONE',  ( 1.000000000000000000, 0.0000000000000000000, 0.0000000000000000000 ) ) ;
#52 = PRODUCT_DEFINITION_SHAPE ( 'NONE', 'NONE',  #104 ) ;
#53 = CARTESIAN_POINT ( 'NONE',  ( -12.69999999999999900, 3.997792089092478900E-015, 0.09716833836504759600 ) ) ;
#54 = DATE_AND_TIME ( #47, #69 ) ;
#55 = ORIENTED_EDGE ( 'NONE', *, *, #70, .F. ) ;
#56 = UNCERTAINTY_MEASURE_WITH_UNIT (LENGTH_MEASURE( 1.000000000000000100E-005 ), #45, 'distance_accuracy_value', 'NONE');
#57 = CARTESIAN_POINT ( 'NONE',  ( -8.516735761720511300, -12.85238789028201700, 0.1322903187349674900 ) ) ;
#58 = CARTESIAN_POINT ( 'NONE',  ( 4.258430948793294300, 12.85238789028191400, 0.09951432384514116700 ) ) ;
#59 = CC_DESIGN_PERSON_AND_ORGANIZATION_ASSIGNMENT ( #2, #214, ( #22 ) ) ;
#60 = CARTESIAN_POINT ( 'NONE',  ( -4.259111806884366300, -4.284471759660460700, -0.03317409292625712900 ) ) ;
#61 = FACE_OUTER_BOUND ( 'NONE', #173, .T. ) ;
#62 = APPROVAL_ROLE ( '' ) ;
#63 = AXIS2_PLACEMENT_3D ( 'NONE', #6, #146, #36 ) ;
#64 = SECURITY_CLASSIFICATION_LEVEL ( 'unclassified' ) ;
#65 =( BOUNDED_SURFACE ( )  B_SPLINE_SURFACE ( 3, 3, ( 
 ( #114, #228, #73, #8 ),
 ( #79, #29, #116, #28 ),
 ( #38, #113, #151, #149 ),
 ( #174, #58, #135, #232 ) ),
 .UNSPECIFIED., .F., .F., .F. ) 
 B_SPLINE_SURFACE_WITH_KNOTS ( ( 4, 4 ),
 ( 4, 4 ),
 ( 0.0000000000000000000, 1.000000000000000000 ),
 ( 0.0000000000000000000, 1.000000000000000000 ),
 .UNSPECIFIED. ) 
 GEOMETRIC_REPRESENTATION_ITEM ( )  RATIONAL_B_SPLINE_SURFACE ( (
 ( 1.000000000000000000, 0.9999802531546567700, 0.9999802531546567700, 1.000000000000000000),
 ( 0.9999200688161886700, 0.9999003235492341900, 0.9999003235492341900, 0.9999200688161886700),
 ( 0.9999200688161886700, 0.9999003235492341900, 0.9999003235492341900, 0.9999200688161886700),
 ( 1.000000000000000000, 0.9999802531546567700, 0.9999802531546567700, 1.000000000000000000) ) ) 
 REPRESENTATION_ITEM ( '' )  SURFACE ( )  );
#66 = PERSON_AND_ORGANIZATION ( #107, #202 ) ;
#67 = VERTEX_POINT ( 'NONE', #20 ) ;
#68 = CARTESIAN_POINT ( 'NONE',  ( -12.69999999999999900, 3.997792089092478900E-015, 0.09716833836504759600 ) ) ;
#69 = LOCAL_TIME ( 8, 45, 15.00000000000000000, #93 ) ;
#70 = EDGE_CURVE ( 'NONE', #49, #67, #19, .T. ) ;
#71 = CARTESIAN_POINT ( 'NONE',  ( 4.996003610813200500E-016, 2.442490654175340100E-015, 0.09716833836504759600 ) ) ;
#72 = DIRECTION ( 'NONE',  ( 1.000000000000000000, 0.0000000000000000000, 0.0000000000000000000 ) ) ;
#73 = CARTESIAN_POINT ( 'NONE',  ( 8.516735761720257300, -12.85238789028201400, 0.1322903187349405700 ) ) ;
#74 = CIRCLE ( 'NONE', #110, 12.69999999999999900 ) ;
#75 = PLANE ( 'NONE',  #18 ) ;
#76 = EDGE_CURVE ( 'NONE', #49, #89, #140, .T. ) ;
#77 = SHAPE_DEFINITION_REPRESENTATION ( #52, #200 ) ;
#78 = CARTESIAN_POINT ( 'NONE',  ( 1.144917494144692700E-013, -12.85238789028201700, 0.09951432384510372500 ) ) ;
#79 = CARTESIAN_POINT ( 'NONE',  ( 3.157950625290835000E-013, -4.284471759660460700, -0.03317409292622070000 ) ) ;
#80 = EDGE_LOOP ( 'NONE', ( #17, #125, #201 ) ) ;
#81 = DIRECTION ( 'NONE',  ( 1.000000000000000000, 0.0000000000000000000, 0.0000000000000000000 ) ) ;
#82 = ORIENTED_EDGE ( 'NONE', *, *, #76, .T. ) ;
#83 = DIRECTION ( 'NONE',  ( -0.0000000000000000000, -0.0000000000000000000, -1.000000000000000000 ) ) ;
#84 = EDGE_CURVE ( 'NONE', #67, #219, #74, .T. ) ;
#85 = ORIENTED_EDGE ( 'NONE', *, *, #159, .T. ) ;
#86 = PERSON_AND_ORGANIZATION ( #107, #202 ) ;
#87 = EDGE_CURVE ( 'NONE', #89, #186, #48, .T. ) ;
#88 = DATE_AND_TIME ( #190, #4 ) ;
#89 = VERTEX_POINT ( 'NONE', #68 ) ;
#90 = AXIS2_PLACEMENT_3D ( 'NONE', #213, #83, #160 ) ;
#91 = CARTESIAN_POINT ( 'NONE',  ( 1.144917494144692700E-013, -4.284471759660460700, -0.03317409292625713600 ) ) ;
#92 = CARTESIAN_POINT ( 'NONE',  ( 1.110223024625156500E-013, 4.284471759660358500, -0.03317409292625605300 ) ) ;
#93 = COORDINATED_UNIVERSAL_TIME_OFFSET ( 2, 0, .AHEAD. ) ;
#94 = DIRECTION ( 'NONE',  ( 0.0000000000000000000, 0.0000000000000000000, 1.000000000000000000 ) ) ;
#95 = DESIGN_CONTEXT ( 'detailed design', #139, 'design' ) ;
#96 = ORIENTED_EDGE ( 'NONE', *, *, #87, .T. ) ;
#97 = DIRECTION ( 'NONE',  ( 0.0000000000000000000, 0.0000000000000000000, 1.000000000000000000 ) ) ;
#98 = AXIS2_PLACEMENT_3D ( 'NONE', #145, #109, #51 ) ;
#99 = APPROVAL_PERSON_ORGANIZATION ( #106, #222, #161 ) ;
#100 = DIRECTION ( 'NONE',  ( -0.0000000000000000000, -0.0000000000000000000, -1.000000000000000000 ) ) ;
#101 = ORIENTED_EDGE ( 'NONE', *, *, #199, .T. ) ;
#102 = PERSON_AND_ORGANIZATION_ROLE ( 'classification_officer' ) ;
#103 = APPROVAL_PERSON_ORGANIZATION ( #66, #181, #180 ) ;
#104 = PRODUCT_DEFINITION ( 'UNKNOWN', '', #22, #95 ) ;
#105 = CYLINDRICAL_SURFACE ( 'NONE', #178, 12.69999999999999900 ) ;
#106 = PERSON_AND_ORGANIZATION ( #107, #202 ) ;
#107 = PERSON ( 'UNSPECIFIED', 'UNSPECIFIED', 'UNSPECIFIED', ('UNSPECIFIED'), ('UNSPECIFIED'), ('UNSPECIFIED') ) ;
#108 =( GEOMETRIC_REPRESENTATION_CONTEXT ( 3 ) GLOBAL_UNCERTAINTY_ASSIGNED_CONTEXT ( ( #56 ) ) GLOBAL_UNIT_ASSIGNED_CONTEXT ( ( #45, #196, #156 ) ) REPRESENTATION_CONTEXT ( 'NONE', 'WORKASPACE' ) );
#109 = DIRECTION ( 'NONE',  ( -0.0000000000000000000, -0.0000000000000000000, -1.000000000000000000 ) ) ;
#110 = AXIS2_PLACEMENT_3D ( 'NONE', #204, #23, #25 ) ;
#111 = DIRECTION ( 'NONE',  ( 0.0000000000000000000, 0.0000000000000000000, 1.000000000000000000 ) ) ;
#112 = VECTOR ( 'NONE', #128, 1000.000000000000000 ) ;
#113 = CARTESIAN_POINT ( 'NONE',  ( 4.259111806884450700, 4.284471759660358500, -0.03317409292621860400 ) ) ;
#114 = CARTESIAN_POINT ( 'NONE',  ( 3.181626702489970800E-013, -12.85238789028201700, 0.09951432384514014000 ) ) ;
#115 = CC_DESIGN_DATE_AND_TIME_ASSIGNMENT ( #120, #182, ( #150 ) ) ;
#116 = CARTESIAN_POINT ( 'NONE',  ( 8.518097457735363400, -4.284471759660457100, -0.0003928576552599953300 ) ) ;
#117 = CARTESIAN_POINT ( 'NONE',  ( -8.518097457735619200, -4.284471759660462500, -0.0003928576552330800200 ) ) ;
#118 = AXIS2_PLACEMENT_3D ( 'NONE', #132, #100, #157 ) ;
#119 = DIRECTION ( 'NONE',  ( 1.000000000000000000, 0.0000000000000000000, -0.0000000000000000000 ) ) ;
#120 = DATE_AND_TIME ( #168, #136 ) ;
#121 = APPLICATION_PROTOCOL_DEFINITION ( 'international standard', 'config_control_design', 1994, #139 ) ;
#122 = ADVANCED_FACE ( 'NONE', ( #61 ), #105, .T. ) ;
#123 = PERSON_AND_ORGANIZATION_ROLE ( 'creator' ) ;
#124 = ADVANCED_FACE ( 'NONE', ( #134 ), #65, .T. ) ;
#125 = ORIENTED_EDGE ( 'NONE', *, *, #70, .T. ) ;
#126 = PRODUCT_RELATED_PRODUCT_CATEGORY ( 'detail', '', ( #220 ) ) ;
#127 = FACE_OUTER_BOUND ( 'NONE', #217, .T. ) ;
#128 = DIRECTION ( 'NONE',  ( 0.0000000000000000000, 0.0000000000000000000, 1.000000000000000000 ) ) ;
#129 = APPROVAL_DATE_TIME ( #184, #229 ) ;
#130 = EDGE_CURVE ( 'NONE', #186, #223, #148, .T. ) ;
#131 = CARTESIAN_POINT ( 'NONE',  ( 3.181205568853955600E-013, -12.69999999999961700, 0.09716833836504330800 ) ) ;
#132 = CARTESIAN_POINT ( 'NONE',  ( 4.996003610813200500E-016, 2.442490654175340100E-015, 0.09716833836504759600 ) ) ;
#133 = CARTESIAN_POINT ( 'NONE',  ( -12.77466217452209600, 12.85238789028191100, 0.1978403668471129300 ) ) ;
#134 = FACE_OUTER_BOUND ( 'NONE', #80, .T. ) ;
#135 = CARTESIAN_POINT ( 'NONE',  ( 8.516735761720250200, 12.85238789028191400, 0.1322903187349405700 ) ) ;
#136 = LOCAL_TIME ( 8, 45, 15.00000000000000000, #187 ) ;
#137 = CARTESIAN_POINT ( 'NONE',  ( -4.258430948793218800, 12.85238789028191100, 0.09951432384510373900 ) ) ;
#138 = CC_DESIGN_SECURITY_CLASSIFICATION ( #150, ( #22 ) ) ;
#139 = APPLICATION_CONTEXT ( 'configuration controlled 3d designs of mechanical parts and assemblies' ) ;
#140 = CIRCLE ( 'NONE', #98, 12.69999999999999900 ) ;
#141 = DATE_TIME_ROLE ( 'creation_date' ) ;
#142 = COORDINATED_UNIVERSAL_TIME_OFFSET ( 2, 0, .AHEAD. ) ;
#143 = CIRCLE ( 'NONE', #90, 12.69999999999999900 ) ;
#144 = DATE_AND_TIME ( #11, #152 ) ;
#145 = CARTESIAN_POINT ( 'NONE',  ( 4.996003610813200500E-016, 2.442490654175340100E-015, 0.09716833836504759600 ) ) ;
#146 = DIRECTION ( 'NONE',  ( 0.0000000000000000000, 0.0000000000000000000, 1.000000000000000000 ) ) ;
#147 = DIRECTION ( 'NONE',  ( 0.0000000000000000000, 0.0000000000000000000, 1.000000000000000000 ) ) ;
#148 = CIRCLE ( 'NONE', #171, 12.69999999999999900 ) ;
#149 = CARTESIAN_POINT ( 'NONE',  ( 12.77670464796015400, 4.284471759660361200, 0.06516767090875452700 ) ) ;
#150 = SECURITY_CLASSIFICATION ( '', '', #64 ) ;
#151 = CARTESIAN_POINT ( 'NONE',  ( 8.518097457735361600, 4.284471759660360300, -0.0003928576552589382400 ) ) ;
#152 = LOCAL_TIME ( 8, 45, 15.00000000000000000, #192 ) ;
#153 = CARTESIAN_POINT ( 'NONE',  ( 1.075528555105620400E-013, 12.85238789028191400, 0.09951432384510372500 ) ) ;
#154 = CARTESIAN_POINT ( 'NONE',  ( 12.69999999999999900, 2.442490654175340100E-015, 3.000000000000000000 ) ) ;
#155 = APPROVAL_DATE_TIME ( #144, #222 ) ;
#156 =( NAMED_UNIT ( * ) SI_UNIT ( $, .STERADIAN. ) SOLID_ANGLE_UNIT ( ) );
#157 = DIRECTION ( 'NONE',  ( 1.000000000000000000, -8.881784197001252300E-016, 0.0000000000000000000 ) ) ;
#158 = CIRCLE ( 'NONE', #118, 12.69999999999999900 ) ;
#159 = EDGE_CURVE ( 'NONE', #223, #186, #9, .T. ) ;
#160 = DIRECTION ( 'NONE',  ( 1.000000000000000000, 0.0000000000000000000, 0.0000000000000000000 ) ) ;
#161 = APPROVAL_ROLE ( '' ) ;
#162 = CC_DESIGN_APPROVAL ( #229, ( #150 ) ) ;
#163 = LINE ( 'NONE', #225, #112 ) ;
#164 = CC_DESIGN_PERSON_AND_ORGANIZATION_ASSIGNMENT ( #86, #234, ( #220 ) ) ;
#165 = CC_DESIGN_APPROVAL ( #222, ( #104 ) ) ;
#166 = AXIS2_PLACEMENT_3D ( 'NONE', #203, #221, #170 ) ;
#167 = DIRECTION ( 'NONE',  ( 1.000000000000000000, 0.0000000000000000000, 0.0000000000000000000 ) ) ;
#168 = CALENDAR_DATE ( 2018, 21, 12 ) ;
#169 = ORIENTED_EDGE ( 'NONE', *, *, #87, .F. ) ;
#170 = DIRECTION ( 'NONE',  ( 2.800826601236829100E-016, -1.000000000000000000, 0.0000000000000000000 ) ) ;
#171 = AXIS2_PLACEMENT_3D ( 'NONE', #12, #26, #72 ) ;
#172 = CARTESIAN_POINT ( 'NONE',  ( 4.996003610813200500E-016, 2.442490654175340100E-015, 3.000000000000000000 ) ) ;
#173 = EDGE_LOOP ( 'NONE', ( #169, #41, #212, #179, #85 ) ) ;
#174 = CARTESIAN_POINT ( 'NONE',  ( 3.109632082704939100E-013, 12.85238789028191400, 0.09951432384514014000 ) ) ;
#175 = PERSON_AND_ORGANIZATION ( #107, #202 ) ;
#176 = CC_DESIGN_PERSON_AND_ORGANIZATION_ASSIGNMENT ( #39, #211, ( #22 ) ) ;
#177 = APPLICATION_CONTEXT ( 'configuration controlled 3d designs of mechanical parts and assemblies' ) ;
#178 = AXIS2_PLACEMENT_3D ( 'NONE', #71, #111, #167 ) ;
#179 = ORIENTED_EDGE ( 'NONE', *, *, #50, .T. ) ;
#180 = APPROVAL_ROLE ( '' ) ;
#181 = APPROVAL ( #46, 'UNSPECIFIED' ) ;
#182 = DATE_TIME_ROLE ( 'classification_date' ) ;
#183 = ORIENTED_EDGE ( 'NONE', *, *, #84, .F. ) ;
#184 = DATE_AND_TIME ( #21, #14 ) ;
#185 = VECTOR ( 'NONE', #147, 1000.000000000000000 ) ;
#186 = VERTEX_POINT ( 'NONE', #10 ) ;
#187 = COORDINATED_UNIVERSAL_TIME_OFFSET ( 2, 0, .AHEAD. ) ;
#188 = CLOSED_SHELL ( 'NONE', ( #124, #16, #193, #122, #197 ) ) ;
#189 = CARTESIAN_POINT ( 'NONE',  ( -4.258430948793211700, -12.85238789028201700, 0.09951432384510373900 ) ) ;
#190 = CALENDAR_DATE ( 2018, 21, 12 ) ;
#191 = CARTESIAN_POINT ( 'NONE',  ( 12.69999999999999900, 2.442490654175340100E-015, 0.09716833836504759600 ) ) ;
#192 = COORDINATED_UNIVERSAL_TIME_OFFSET ( 2, 0, .AHEAD. ) ;
#193 = ADVANCED_FACE ( 'NONE', ( #194 ), #31, .T. ) ;
#194 = FACE_OUTER_BOUND ( 'NONE', #37, .T. ) ;
#195 = MANIFOLD_SOLID_BREP ( 'Imported1', #188 ) ;
#196 =( NAMED_UNIT ( * ) PLANE_ANGLE_UNIT ( ) SI_UNIT ( $, .RADIAN. ) );
#197 = ADVANCED_FACE ( 'NONE', ( #127 ), #75, .T. ) ;
#198 = CC_DESIGN_PERSON_AND_ORGANIZATION_ASSIGNMENT ( #7, #123, ( #104 ) ) ;
#199 = EDGE_CURVE ( 'NONE', #89, #67, #158, .T. ) ;
#200 = ADVANCED_BREP_SHAPE_REPRESENTATION ( '110-0268E BK7 pl-cx 25.4 F1600', ( #195, #205 ), #108 ) ;
#201 = ORIENTED_EDGE ( 'NONE', *, *, #84, .T. ) ;
#202 = ORGANIZATION ( 'UNSPECIFIED', 'UNSPECIFIED', '' ) ;
#203 = CARTESIAN_POINT ( 'NONE',  ( 1.136868377216160000E-013, 0.0000000000000000000, 830.0000000000001100 ) ) ;
#204 = CARTESIAN_POINT ( 'NONE',  ( 4.996003610813200500E-016, 2.442490654175340100E-015, 0.09716833836504759600 ) ) ;
#205 = AXIS2_PLACEMENT_3D ( 'NONE', #42, #97, #81 ) ;
#206 = EDGE_LOOP ( 'NONE', ( #32, #96, #1, #227, #183 ) ) ;
#207 = CARTESIAN_POINT ( 'NONE',  ( -8.518097457735622800, 4.284471759660355000, -0.0003928576552320229200 ) ) ;
#208 = DIRECTION ( 'NONE',  ( 1.000000000000000000, 0.0000000000000000000, 0.0000000000000000000 ) ) ;
#209 = CARTESIAN_POINT ( 'NONE',  ( 0.0000000000000000000, 26.11199999999999800, 3.000000000000000000 ) ) ;
#210 = DIRECTION ( 'NONE',  ( -0.0000000000000000000, -0.0000000000000000000, -1.000000000000000000 ) ) ;
#211 = PERSON_AND_ORGANIZATION_ROLE ( 'creator' ) ;
#212 = ORIENTED_EDGE ( 'NONE', *, *, #224, .F. ) ;
#213 = CARTESIAN_POINT ( 'NONE',  ( 4.996003610813200500E-016, 2.442490654175340100E-015, 0.09716833836504759600 ) ) ;
#214 = PERSON_AND_ORGANIZATION_ROLE ( 'design_supplier' ) ;
#215 = CC_DESIGN_PERSON_AND_ORGANIZATION_ASSIGNMENT ( #175, #102, ( #150 ) ) ;
#216 = APPROVAL_DATE_TIME ( #88, #181 ) ;
#217 = EDGE_LOOP ( 'NONE', ( #3, #35 ) ) ;
#218 = AXIS2_PLACEMENT_3D ( 'NONE', #172, #210, #208 ) ;
#219 = VERTEX_POINT ( 'NONE', #191 ) ;
#220 = PRODUCT ( '110-0268E BK7 pl-cx 25.4 F1600', '110-0268E BK7 pl-cx 25.4 F1600', '', ( #233 ) ) ;
#221 = DIRECTION ( 'NONE',  ( 1.000000000000000000, 2.800826601236830100E-016, 2.420484202686870100E-016 ) ) ;
#222 = APPROVAL ( #15, 'UNSPECIFIED' ) ;
#223 = VERTEX_POINT ( 'NONE', #154 ) ;
#224 = EDGE_CURVE ( 'NONE', #219, #49, #143, .T. ) ;
#225 = CARTESIAN_POINT ( 'NONE',  ( 12.69999999999999900, 2.442490654175340100E-015, 0.09716833836504759600 ) ) ;
#226 = CARTESIAN_POINT ( 'NONE',  ( -4.259111806884369900, 4.284471759660356800, -0.03317409292625603900 ) ) ;
#227 = ORIENTED_EDGE ( 'NONE', *, *, #50, .F. ) ;
#228 = CARTESIAN_POINT ( 'NONE',  ( 4.258430948793301400, -12.85238789028201400, 0.09951432384514116700 ) ) ;
#229 = APPROVAL ( #235, 'UNSPECIFIED' ) ;
#230 = CARTESIAN_POINT ( 'NONE',  ( -12.77466217452208900, -12.85238789028201900, 0.1978403668471129300 ) ) ;
#231 = COORDINATED_UNIVERSAL_TIME_OFFSET ( 2, 0, .AHEAD. ) ;
#232 = CARTESIAN_POINT ( 'NONE',  ( 12.77466217452148500, 12.85238789028191800, 0.1978403668470764500 ) ) ;
#233 = MECHANICAL_CONTEXT ( 'NONE', #177, 'mechanical' ) ;
#234 = PERSON_AND_ORGANIZATION_ROLE ( 'design_owner' ) ;
#235 = APPROVAL_STATUS ( 'not_yet_approved' ) ;
ENDSEC;
END-ISO-10303-21;
