ISO-10303-21;
HEADER;
FILE_DESCRIPTION (( 'STEP AP203' ),
    '1' );
FILE_NAME ('110-0266E BK7 pl-cx 25.4 F1400.STEP',
    '2019-01-24T12:25:11',
    ( '' ),
    ( '' ),
    'SwSTEP 2.0',
    'SolidWorks 2017',
    '' );
FILE_SCHEMA (( 'CONFIG_CONTROL_DESIGN' ));
ENDSEC;

DATA;
#1 = PERSON_AND_ORGANIZATION ( #223, #147 ) ;
#2 = CARTESIAN_POINT ( 'NONE',  ( 4.996003610813200500E-016, 2.442490654175340100E-015, 0.1110591669915820000 ) ) ;
#3 = APPROVAL ( #125, 'UNSPECIFIED' ) ;
#4 = ORIENTED_EDGE ( 'NONE', *, *, #92, .T. ) ;
#5 = EDGE_LOOP ( 'NONE', ( #62, #122, #108, #155, #113 ) ) ;
#6 = CARTESIAN_POINT ( 'NONE',  ( -8.516511858412016500, -12.85238418059723000, 0.1512008880910213900 ) ) ;
#7 = CARTESIAN_POINT ( 'NONE',  ( 8.516511858411881500, 12.85238418059725700, 0.1512008880909953600 ) ) ;
#8 = CARTESIAN_POINT ( 'NONE',  ( -12.77685925067728200, -4.284575439060285300, 0.07448424685743353100 ) ) ;
#9 = COORDINATED_UNIVERSAL_TIME_OFFSET ( 2, 0, .AHEAD. ) ;
#10 = CIRCLE ( 'NONE', #209, 12.69999999999999900 ) ;
#11 = AXIS2_PLACEMENT_3D ( 'NONE', #40, #180, #89 ) ;
#12 = CARTESIAN_POINT ( 'NONE',  ( -4.258338315045913100, -12.85238418059723000, 0.1137405095216845700 ) ) ;
#13 = DIRECTION ( 'NONE',  ( 0.0000000000000000000, 0.0000000000000000000, 1.000000000000000000 ) ) ;
#14 = SECURITY_CLASSIFICATION_LEVEL ( 'unclassified' ) ;
#15 = VECTOR ( 'NONE', #193, 1000.000000000000000 ) ;
#16 = DIRECTION ( 'NONE',  ( 0.0000000000000000000, 0.0000000000000000000, 1.000000000000000000 ) ) ;
#17 = EDGE_CURVE ( 'NONE', #213, #118, #10, .T. ) ;
#18 = CARTESIAN_POINT ( 'NONE',  ( 0.0000000000000000000, 26.11199999999999800, 3.000000000000000000 ) ) ;
#19 = DESIGN_CONTEXT ( 'detailed design', #55, 'design' ) ;
#20 = UNCERTAINTY_MEASURE_WITH_UNIT (LENGTH_MEASURE( 1.000000000000000100E-005 ), #56, 'distance_accuracy_value', 'NONE');
#21 = CC_DESIGN_PERSON_AND_ORGANIZATION_ASSIGNMENT ( #167, #195, ( #103 ) ) ;
#22 = ORIENTED_EDGE ( 'NONE', *, *, #60, .T. ) ;
#23 = LOCAL_TIME ( 14, 25, 11.00000000000000000, #148 ) ;
#24 = CYLINDRICAL_SURFACE ( 'NONE', #26, 12.69999999999999900 ) ;
#25 = CC_DESIGN_SECURITY_CLASSIFICATION ( #199, ( #103 ) ) ;
#26 = AXIS2_PLACEMENT_3D ( 'NONE', #83, #119, #90 ) ;
#27 = CARTESIAN_POINT ( 'NONE',  ( 8.518290706171564300, -4.284575439060285300, -0.0004492594332692013100 ) ) ;
#28 = ADVANCED_FACE ( 'NONE', ( #191 ), #53, .T. ) ;
#29 = DIRECTION ( 'NONE',  ( -0.0000000000000000000, -0.0000000000000000000, -1.000000000000000000 ) ) ;
#30 = CARTESIAN_POINT ( 'NONE',  ( -8.518290706171699300, 4.284575439060311000, -0.0004492594332421639600 ) ) ;
#31 = CALENDAR_DATE ( 2019, 24, 1 ) ;
#32 = CIRCLE ( 'NONE', #197, 12.69999999999999900 ) ;
#33 = CARTESIAN_POINT ( 'NONE',  ( 4.996003610813200500E-016, 2.442490654175340100E-015, 3.000000000000000000 ) ) ;
#34 = DIRECTION ( 'NONE',  ( -0.0000000000000000000, -0.0000000000000000000, -1.000000000000000000 ) ) ;
#35 = CARTESIAN_POINT ( 'NONE',  ( -12.77685925067728200, 4.284575439060311000, 0.07448424685743454400 ) ) ;
#36 = DATE_TIME_ROLE ( 'classification_date' ) ;
#37 = ORIENTED_EDGE ( 'NONE', *, *, #128, .F. ) ;
#38 = PLANE ( 'NONE',  #143 ) ;
#39 = APPROVAL_ROLE ( '' ) ;
#40 = CARTESIAN_POINT ( 'NONE',  ( -1.136868377216160000E-013, 5.684341886080800200E-014, 726.2000000000000500 ) ) ;
#41 = CALENDAR_DATE ( 2019, 24, 1 ) ;
#42 = APPLICATION_CONTEXT ( 'configuration controlled 3d designs of mechanical parts and assemblies' ) ;
#43 = ORIENTED_EDGE ( 'NONE', *, *, #98, .T. ) ;
#44 = DIRECTION ( 'NONE',  ( -0.0000000000000000000, -0.0000000000000000000, -1.000000000000000000 ) ) ;
#45 = AXIS2_PLACEMENT_3D ( 'NONE', #179, #139, #194 ) ;
#46 = CARTESIAN_POINT ( 'NONE',  ( 12.77419109949087400, -12.85238418059723200, 0.2261187462540891500 ) ) ;
#47 = FACE_OUTER_BOUND ( 'NONE', #168, .T. ) ;
#48 = CARTESIAN_POINT ( 'NONE',  ( -1.136868377216160500E-013, 4.284575439060311000, -0.03791746236919166200 ) ) ;
#49 = ADVANCED_FACE ( 'NONE', ( #204 ), #142, .T. ) ;
#50 = CALENDAR_DATE ( 2019, 24, 1 ) ;
#51 = LOCAL_TIME ( 14, 25, 11.00000000000000000, #131 ) ;
#52 = EDGE_LOOP ( 'NONE', ( #22, #58, #73 ) ) ;
#53 =( BOUNDED_SURFACE ( )  B_SPLINE_SURFACE ( 3, 3, ( 
 ( #183, #130, #150, #46 ),
 ( #185, #202, #27, #151 ),
 ( #48, #172, #61, #78 ),
 ( #114, #115, #7, #157 ) ),
 .UNSPECIFIED., .F., .F., .F. ) 
 B_SPLINE_SURFACE_WITH_KNOTS ( ( 4, 4 ),
 ( 4, 4 ),
 ( 0.0000000000000000000, 1.000000000000000000 ),
 ( 0.0000000000000000000, 1.000000000000000000 ),
 .UNSPECIFIED. ) 
 GEOMETRIC_REPRESENTATION_ITEM ( )  RATIONAL_B_SPLINE_SURFACE ( (
 ( 1.000000000000000000, 0.9999742040725232400, 0.9999742040725232400, 1.000000000000000000),
 ( 0.9998955838524541400, 0.9998697906184888000, 0.9998697906184888000, 0.9998955838524541400),
 ( 0.9998955838524541400, 0.9998697906184888000, 0.9998697906184888000, 0.9998955838524541400),
 ( 1.000000000000000000, 0.9999742040725232400, 0.9999742040725232400, 1.000000000000000000) ) ) 
 REPRESENTATION_ITEM ( '' )  SURFACE ( )  );
#54 = CARTESIAN_POINT ( 'NONE',  ( -12.69999999999999900, 3.997792089092478900E-015, 3.000000000000000000 ) ) ;
#55 = APPLICATION_CONTEXT ( 'configuration controlled 3d designs of mechanical parts and assemblies' ) ;
#56 =( LENGTH_UNIT ( ) NAMED_UNIT ( * ) SI_UNIT ( .MILLI., .METRE. ) );
#57 = DATE_AND_TIME ( #162, #23 ) ;
#58 = ORIENTED_EDGE ( 'NONE', *, *, #164, .T. ) ;
#59 = COORDINATED_UNIVERSAL_TIME_OFFSET ( 2, 0, .AHEAD. ) ;
#60 = EDGE_CURVE ( 'NONE', #112, #133, #109, .T. ) ;
#61 = CARTESIAN_POINT ( 'NONE',  ( 8.518290706171564300, 4.284575439060311000, -0.0004492594332681441600 ) ) ;
#62 = ORIENTED_EDGE ( 'NONE', *, *, #17, .F. ) ;
#63 = CARTESIAN_POINT ( 'NONE',  ( 12.69999999999999900, 2.442490654175340100E-015, 0.1110591669915820000 ) ) ;
#64 = VECTOR ( 'NONE', #174, 1000.000000000000000 ) ;
#65 = CARTESIAN_POINT ( 'NONE',  ( -12.77419109949087400, -12.85238418059723200, 0.2261187462541114400 ) ) ;
#66 = PRODUCT_DEFINITION ( 'UNKNOWN', '', #103, #19 ) ;
#67 = APPROVAL_STATUS ( 'not_yet_approved' ) ;
#68 = ORIENTED_EDGE ( 'NONE', *, *, #164, .F. ) ;
#69 = APPROVAL_ROLE ( '' ) ;
#70 = DIRECTION ( 'NONE',  ( -0.0000000000000000000, -0.0000000000000000000, -1.000000000000000000 ) ) ;
#71 = PERSON_AND_ORGANIZATION_ROLE ( 'creator' ) ;
#72 = APPROVAL_PERSON_ORGANIZATION ( #187, #138, #69 ) ;
#73 = ORIENTED_EDGE ( 'NONE', *, *, #136, .T. ) ;
#74 = EDGE_LOOP ( 'NONE', ( #166, #217, #88, #43, #4 ) ) ;
#75 = PERSON_AND_ORGANIZATION ( #223, #147 ) ;
#76 = AXIS2_PLACEMENT_3D ( 'NONE', #228, #16, #159 ) ;
#77 = CLOSED_SHELL ( 'NONE', ( #28, #188, #49, #134, #221 ) ) ;
#78 = CARTESIAN_POINT ( 'NONE',  ( 12.77685925067728200, 4.284575439060311000, 0.07448424685741229800 ) ) ;
#79 = PRODUCT ( '110-0266E BK7 pl-cx 25.4 F1400', '110-0266E BK7 pl-cx 25.4 F1400', '', ( #121 ) ) ;
#80 = DIRECTION ( 'NONE',  ( 1.000000000000000000, 0.0000000000000000000, 0.0000000000000000000 ) ) ;
#81 = LOCAL_TIME ( 14, 25, 11.00000000000000000, #9 ) ;
#82 = CARTESIAN_POINT ( 'NONE',  ( -8.516511858412016500, 12.85238418059725700, 0.1512008880910213900 ) ) ;
#83 = CARTESIAN_POINT ( 'NONE',  ( 4.996003610813200500E-016, 2.442490654175340100E-015, 0.1110591669915820000 ) ) ;
#84 = CC_DESIGN_PERSON_AND_ORGANIZATION_ASSIGNMENT ( #141, #140, ( #199 ) ) ;
#85 = EDGE_CURVE ( 'NONE', #133, #213, #184, .T. ) ;
#86 = APPROVAL_DATE_TIME ( #215, #3 ) ;
#87 = CARTESIAN_POINT ( 'NONE',  ( 4.996003610813200500E-016, 2.442490654175340100E-015, 0.1110591669915820000 ) ) ;
#88 = ORIENTED_EDGE ( 'NONE', *, *, #60, .F. ) ;
#89 = DIRECTION ( 'NONE',  ( 0.0000000000000000000, -1.000000000000000000, 0.0000000000000000000 ) ) ;
#90 = DIRECTION ( 'NONE',  ( 1.000000000000000000, 0.0000000000000000000, 0.0000000000000000000 ) ) ;
#91 = CARTESIAN_POINT ( 'NONE',  ( -12.69999999999999900, 3.997792089092478900E-015, 0.1110591669915820000 ) ) ;
#92 = EDGE_CURVE ( 'NONE', #211, #163, #220, .T. ) ;
#93 = CC_DESIGN_DATE_AND_TIME_ASSIGNMENT ( #181, #124, ( #66 ) ) ;
#94 = CIRCLE ( 'NONE', #11, 726.2000000000000500 ) ;
#95 = CC_DESIGN_APPROVAL ( #171, ( #199 ) ) ;
#96 = CARTESIAN_POINT ( 'NONE',  ( -12.77419109949087400, 12.85238418059725700, 0.2261187462541114400 ) ) ;
#97 = CARTESIAN_POINT ( 'NONE',  ( 12.69999999999999900, 2.442490654175340100E-015, 0.1110591669915820000 ) ) ;
#98 = EDGE_CURVE ( 'NONE', #112, #211, #177, .T. ) ;
#99 = CARTESIAN_POINT ( 'NONE',  ( -4.259227756133723700, -4.284575439060285300, -0.03791746236912848400 ) ) ;
#100 = PERSON_AND_ORGANIZATION ( #223, #147 ) ;
#101 = CIRCLE ( 'NONE', #219, 12.69999999999999900 ) ;
#102 = CARTESIAN_POINT ( 'NONE',  ( 4.996003610813200500E-016, 2.442490654175340100E-015, 3.000000000000000000 ) ) ;
#103 = PRODUCT_DEFINITION_FORMATION_WITH_SPECIFIED_SOURCE ( 'ANY', '', #79, .NOT_KNOWN. ) ;
#104 = APPROVAL_STATUS ( 'not_yet_approved' ) ;
#105 = SHAPE_DEFINITION_REPRESENTATION ( #190, #192 ) ;
#106 = DIRECTION ( 'NONE',  ( 1.000000000000000000, 0.0000000000000000000, -0.0000000000000000000 ) ) ;
#107 = COORDINATED_UNIVERSAL_TIME_OFFSET ( 2, 0, .AHEAD. ) ;
#108 = ORIENTED_EDGE ( 'NONE', *, *, #128, .T. ) ;
#109 = CIRCLE ( 'NONE', #120, 12.69999999999999900 ) ;
#110 = APPROVAL_DATE_TIME ( #57, #171 ) ;
#111 = AXIS2_PLACEMENT_3D ( 'NONE', #156, #29, #205 ) ;
#112 = VERTEX_POINT ( 'NONE', #97 ) ;
#113 = ORIENTED_EDGE ( 'NONE', *, *, #136, .F. ) ;
#114 = CARTESIAN_POINT ( 'NONE',  ( -1.136868377216160000E-013, 12.85238418059725700, 0.1137405095216204000 ) ) ;
#115 = CARTESIAN_POINT ( 'NONE',  ( 4.258338315045644900, 12.85238418059725700, 0.1137405095216204000 ) ) ;
#116 = APPROVAL_PERSON_ORGANIZATION ( #75, #171, #234 ) ;
#117 = CARTESIAN_POINT ( 'NONE',  ( -1.136868377216160000E-013, -12.70000000000177400, 0.1110591669915968500 ) ) ;
#118 = VERTEX_POINT ( 'NONE', #224 ) ;
#119 = DIRECTION ( 'NONE',  ( 0.0000000000000000000, 0.0000000000000000000, 1.000000000000000000 ) ) ;
#120 = AXIS2_PLACEMENT_3D ( 'NONE', #135, #34, #80 ) ;
#121 = MECHANICAL_CONTEXT ( 'NONE', #42, 'mechanical' ) ;
#122 = ORIENTED_EDGE ( 'NONE', *, *, #203, .T. ) ;
#123 = PERSON_AND_ORGANIZATION_ROLE ( 'design_owner' ) ;
#124 = DATE_TIME_ROLE ( 'creation_date' ) ;
#125 = APPROVAL_STATUS ( 'not_yet_approved' ) ;
#126 = DIRECTION ( 'NONE',  ( 1.000000000000000000, 0.0000000000000000000, 0.0000000000000000000 ) ) ;
#127 = FACE_OUTER_BOUND ( 'NONE', #74, .T. ) ;
#128 = EDGE_CURVE ( 'NONE', #163, #211, #32, .T. ) ;
#129 = CC_DESIGN_APPROVAL ( #3, ( #103 ) ) ;
#130 = CARTESIAN_POINT ( 'NONE',  ( 4.258338315045644900, -12.85238418059723000, 0.1137405095216204000 ) ) ;
#131 = COORDINATED_UNIVERSAL_TIME_OFFSET ( 2, 0, .AHEAD. ) ;
#132 = CC_DESIGN_DATE_AND_TIME_ASSIGNMENT ( #144, #36, ( #199 ) ) ;
#133 = VERTEX_POINT ( 'NONE', #117 ) ;
#134 = ADVANCED_FACE ( 'NONE', ( #127 ), #24, .T. ) ;
#135 = CARTESIAN_POINT ( 'NONE',  ( 4.996003610813200500E-016, 2.442490654175340100E-015, 0.1110591669915820000 ) ) ;
#136 = EDGE_CURVE ( 'NONE', #118, #112, #101, .T. ) ;
#137 = CARTESIAN_POINT ( 'NONE',  ( -2.914335439641036900E-013, -4.284575439060285300, -0.03791746236912952500 ) ) ;
#138 = APPROVAL ( #104, 'UNSPECIFIED' ) ;
#139 = DIRECTION ( 'NONE',  ( 0.0000000000000000000, 0.0000000000000000000, 1.000000000000000000 ) ) ;
#140 = PERSON_AND_ORGANIZATION_ROLE ( 'classification_officer' ) ;
#141 = PERSON_AND_ORGANIZATION ( #223, #147 ) ;
#142 =( BOUNDED_SURFACE ( )  B_SPLINE_SURFACE ( 3, 3, ( 
 ( #65, #6, #12, #225 ),
 ( #8, #175, #99, #137 ),
 ( #35, #30, #189, #176 ),
 ( #96, #82, #222, #206 ) ),
 .UNSPECIFIED., .F., .F., .T. ) 
 B_SPLINE_SURFACE_WITH_KNOTS ( ( 4, 4 ),
 ( 4, 4 ),
 ( 0.0000000000000000000, 1.000000000000000000 ),
 ( 0.0000000000000000000, 1.000000000000000000 ),
 .UNSPECIFIED. ) 
 GEOMETRIC_REPRESENTATION_ITEM ( )  RATIONAL_B_SPLINE_SURFACE ( (
 ( 1.000000000000000000, 0.9999742040725232400, 0.9999742040725232400, 1.000000000000000000),
 ( 0.9998955838524541400, 0.9998697906184888000, 0.9998697906184888000, 0.9998955838524541400),
 ( 0.9998955838524541400, 0.9998697906184888000, 0.9998697906184888000, 0.9998955838524541400),
 ( 1.000000000000000000, 0.9999742040725232400, 0.9999742040725232400, 1.000000000000000000) ) ) 
 REPRESENTATION_ITEM ( '' )  SURFACE ( )  );
#143 = AXIS2_PLACEMENT_3D ( 'NONE', #18, #13, #106 ) ;
#144 = DATE_AND_TIME ( #232, #218 ) ;
#145 = ORIENTED_EDGE ( 'NONE', *, *, #92, .F. ) ;
#146 = AXIS2_PLACEMENT_3D ( 'NONE', #33, #152, #210 ) ;
#147 = ORGANIZATION ( 'UNSPECIFIED', 'UNSPECIFIED', '' ) ;
#148 = COORDINATED_UNIVERSAL_TIME_OFFSET ( 2, 0, .AHEAD. ) ;
#149 = FACE_OUTER_BOUND ( 'NONE', #5, .T. ) ;
#150 = CARTESIAN_POINT ( 'NONE',  ( 8.516511858411881500, -12.85238418059723000, 0.1512008880909953600 ) ) ;
#151 = CARTESIAN_POINT ( 'NONE',  ( 12.77685925067728200, -4.284575439060285300, 0.07448424685741124300 ) ) ;
#152 = DIRECTION ( 'NONE',  ( -0.0000000000000000000, -0.0000000000000000000, -1.000000000000000000 ) ) ;
#153 = PERSON_AND_ORGANIZATION ( #223, #147 ) ;
#154 =( GEOMETRIC_REPRESENTATION_CONTEXT ( 3 ) GLOBAL_UNCERTAINTY_ASSIGNED_CONTEXT ( ( #20 ) ) GLOBAL_UNIT_ASSIGNED_CONTEXT ( ( #56, #160, #158 ) ) REPRESENTATION_CONTEXT ( 'NONE', 'WORKASPACE' ) );
#155 = ORIENTED_EDGE ( 'NONE', *, *, #98, .F. ) ;
#156 = CARTESIAN_POINT ( 'NONE',  ( 4.996003610813200500E-016, 2.442490654175340100E-015, 0.1110591669915820000 ) ) ;
#157 = CARTESIAN_POINT ( 'NONE',  ( 12.77419109949087400, 12.85238418059725700, 0.2261187462540891500 ) ) ;
#158 =( NAMED_UNIT ( * ) SI_UNIT ( $, .STERADIAN. ) SOLID_ANGLE_UNIT ( ) );
#159 = DIRECTION ( 'NONE',  ( 1.000000000000000000, 0.0000000000000000000, 0.0000000000000000000 ) ) ;
#160 =( NAMED_UNIT ( * ) PLANE_ANGLE_UNIT ( ) SI_UNIT ( $, .RADIAN. ) );
#161 = DIRECTION ( 'NONE',  ( 1.000000000000000000, 8.881784197001252300E-016, 0.0000000000000000000 ) ) ;
#162 = CALENDAR_DATE ( 2019, 24, 1 ) ;
#163 = VERTEX_POINT ( 'NONE', #54 ) ;
#164 = EDGE_CURVE ( 'NONE', #133, #118, #94, .T. ) ;
#165 = CC_DESIGN_APPROVAL ( #138, ( #66 ) ) ;
#166 = ORIENTED_EDGE ( 'NONE', *, *, #203, .F. ) ;
#167 = PERSON_AND_ORGANIZATION ( #223, #147 ) ;
#168 = EDGE_LOOP ( 'NONE', ( #145, #37 ) ) ;
#169 = CC_DESIGN_PERSON_AND_ORGANIZATION_ASSIGNMENT ( #1, #231, ( #66 ) ) ;
#170 = DIRECTION ( 'NONE',  ( 1.000000000000000000, -8.881784197001252300E-016, 0.0000000000000000000 ) ) ;
#171 = APPROVAL ( #67, 'UNSPECIFIED' ) ;
#172 = CARTESIAN_POINT ( 'NONE',  ( 4.259227756133453700, 4.284575439060311000, -0.03791746236919165500 ) ) ;
#173 = ORIENTED_EDGE ( 'NONE', *, *, #85, .T. ) ;
#174 = DIRECTION ( 'NONE',  ( 0.0000000000000000000, 0.0000000000000000000, 1.000000000000000000 ) ) ;
#175 = CARTESIAN_POINT ( 'NONE',  ( -8.518290706171699300, -4.284575439060285300, -0.0004492594332431939500 ) ) ;
#176 = CARTESIAN_POINT ( 'NONE',  ( -2.914335439641036900E-013, 4.284575439060311000, -0.03791746236912851800 ) ) ;
#177 = LINE ( 'NONE', #63, #64 ) ;
#178 = APPLICATION_PROTOCOL_DEFINITION ( 'international standard', 'config_control_design', 1994, #55 ) ;
#179 = CARTESIAN_POINT ( 'NONE',  ( 4.996003610813200500E-016, 2.442490654175340100E-015, 0.1110591669915820000 ) ) ;
#180 = DIRECTION ( 'NONE',  ( 1.000000000000000000, 0.0000000000000000000, 0.0000000000000000000 ) ) ;
#181 = DATE_AND_TIME ( #31, #81 ) ;
#182 = CYLINDRICAL_SURFACE ( 'NONE', #45, 12.69999999999999900 ) ;
#183 = CARTESIAN_POINT ( 'NONE',  ( -1.136868377216160000E-013, -12.85238418059723200, 0.1137405095216204000 ) ) ;
#184 = CIRCLE ( 'NONE', #111, 12.69999999999999900 ) ;
#185 = CARTESIAN_POINT ( 'NONE',  ( -1.136868377216160500E-013, -4.284575439060285300, -0.03791746236919271700 ) ) ;
#186 = CC_DESIGN_PERSON_AND_ORGANIZATION_ASSIGNMENT ( #153, #71, ( #103 ) ) ;
#187 = PERSON_AND_ORGANIZATION ( #223, #147 ) ;
#188 = ADVANCED_FACE ( 'NONE', ( #149 ), #182, .T. ) ;
#189 = CARTESIAN_POINT ( 'NONE',  ( -4.259227756133723700, 4.284575439060311000, -0.03791746236912747800 ) ) ;
#190 = PRODUCT_DEFINITION_SHAPE ( 'NONE', 'NONE',  #66 ) ;
#191 = FACE_OUTER_BOUND ( 'NONE', #52, .T. ) ;
#192 = ADVANCED_BREP_SHAPE_REPRESENTATION ( '110-0266E BK7 pl-cx 25.4 F1400', ( #235, #76 ), #154 ) ;
#193 = DIRECTION ( 'NONE',  ( 0.0000000000000000000, 0.0000000000000000000, 1.000000000000000000 ) ) ;
#194 = DIRECTION ( 'NONE',  ( 1.000000000000000000, 0.0000000000000000000, 0.0000000000000000000 ) ) ;
#195 = PERSON_AND_ORGANIZATION_ROLE ( 'design_supplier' ) ;
#196 = APPROVAL_DATE_TIME ( #227, #138 ) ;
#197 = AXIS2_PLACEMENT_3D ( 'NONE', #102, #226, #126 ) ;
#198 = ORIENTED_EDGE ( 'NONE', *, *, #17, .T. ) ;
#199 = SECURITY_CLASSIFICATION ( '', '', #14 ) ;
#200 = PERSON_AND_ORGANIZATION ( #223, #147 ) ;
#201 = LINE ( 'NONE', #91, #15 ) ;
#202 = CARTESIAN_POINT ( 'NONE',  ( 4.259227756133453700, -4.284575439060285300, -0.03791746236919271000 ) ) ;
#203 = EDGE_CURVE ( 'NONE', #213, #163, #201, .T. ) ;
#204 = FACE_OUTER_BOUND ( 'NONE', #208, .T. ) ;
#205 = DIRECTION ( 'NONE',  ( 1.000000000000000000, 0.0000000000000000000, 0.0000000000000000000 ) ) ;
#206 = CARTESIAN_POINT ( 'NONE',  ( -2.914335439641035900E-013, 12.85238418059725700, 0.1137405095216835300 ) ) ;
#207 = LOCAL_TIME ( 14, 25, 11.00000000000000000, #59 ) ;
#208 = EDGE_LOOP ( 'NONE', ( #68, #173, #198 ) ) ;
#209 = AXIS2_PLACEMENT_3D ( 'NONE', #2, #44, #170 ) ;
#210 = DIRECTION ( 'NONE',  ( 1.000000000000000000, 0.0000000000000000000, 0.0000000000000000000 ) ) ;
#211 = VERTEX_POINT ( 'NONE', #233 ) ;
#212 = APPROVAL_PERSON_ORGANIZATION ( #100, #3, #39 ) ;
#213 = VERTEX_POINT ( 'NONE', #230 ) ;
#214 = CC_DESIGN_PERSON_AND_ORGANIZATION_ASSIGNMENT ( #200, #123, ( #79 ) ) ;
#215 = DATE_AND_TIME ( #41, #51 ) ;
#216 = PRODUCT_RELATED_PRODUCT_CATEGORY ( 'detail', '', ( #79 ) ) ;
#217 = ORIENTED_EDGE ( 'NONE', *, *, #85, .F. ) ;
#218 = LOCAL_TIME ( 14, 25, 11.00000000000000000, #107 ) ;
#219 = AXIS2_PLACEMENT_3D ( 'NONE', #87, #70, #161 ) ;
#220 = CIRCLE ( 'NONE', #146, 12.69999999999999900 ) ;
#221 = ADVANCED_FACE ( 'NONE', ( #47 ), #38, .T. ) ;
#222 = CARTESIAN_POINT ( 'NONE',  ( -4.258338315045913100, 12.85238418059725700, 0.1137405095216845700 ) ) ;
#223 = PERSON ( 'UNSPECIFIED', 'UNSPECIFIED', 'UNSPECIFIED', ('UNSPECIFIED'), ('UNSPECIFIED'), ('UNSPECIFIED') ) ;
#224 = CARTESIAN_POINT ( 'NONE',  ( -1.136868377216160000E-013, 12.70000000000183200, 0.1110591669915968500 ) ) ;
#225 = CARTESIAN_POINT ( 'NONE',  ( -2.914335439641035900E-013, -12.85238418059723200, 0.1137405095216835300 ) ) ;
#226 = DIRECTION ( 'NONE',  ( -0.0000000000000000000, -0.0000000000000000000, -1.000000000000000000 ) ) ;
#227 = DATE_AND_TIME ( #50, #207 ) ;
#228 = CARTESIAN_POINT ( 'NONE',  ( 0.0000000000000000000, 0.0000000000000000000, 0.0000000000000000000 ) ) ;
#229 = APPLICATION_PROTOCOL_DEFINITION ( 'international standard', 'config_control_design', 1994, #42 ) ;
#230 = CARTESIAN_POINT ( 'NONE',  ( -12.69999999999999900, 3.997792089092478900E-015, 0.1110591669915820000 ) ) ;
#231 = PERSON_AND_ORGANIZATION_ROLE ( 'creator' ) ;
#232 = CALENDAR_DATE ( 2019, 24, 1 ) ;
#233 = CARTESIAN_POINT ( 'NONE',  ( 12.69999999999999900, 2.442490654175340100E-015, 3.000000000000000000 ) ) ;
#234 = APPROVAL_ROLE ( '' ) ;
#235 = MANIFOLD_SOLID_BREP ( 'Imported1', #77 ) ;
ENDSEC;
END-ISO-10303-21;
