ISO-10303-21;
HEADER;
FILE_DESCRIPTION (( 'STEP AP203' ),
    '1' );
FILE_NAME ('110-0265E BK7 pl-cx 25.4 F1300.STEP',
    '2018-12-21T06:45:44',
    ( '' ),
    ( '' ),
    'SwSTEP 2.0',
    'SolidWorks 2017',
    '' );
FILE_SCHEMA (( 'CONFIG_CONTROL_DESIGN' ));
ENDSEC;

DATA;
#1 = COORDINATED_UNIVERSAL_TIME_OFFSET ( 2, 0, .AHEAD. ) ;
#2 = CC_DESIGN_DATE_AND_TIME_ASSIGNMENT ( #176, #201, ( #132 ) ) ;
#3 = CARTESIAN_POINT ( 'NONE',  ( -4.258275156776575100, -12.85238165132178500, 0.1224964552074871700 ) ) ;
#4 = CIRCLE ( 'NONE', #71, 12.69999999999999900 ) ;
#5 = CARTESIAN_POINT ( 'NONE',  ( -8.516359201125242300, 12.85238165132189900, 0.1628397579933373300 ) ) ;
#6 = CALENDAR_DATE ( 2018, 21, 12 ) ;
#7 = CARTESIAN_POINT ( 'NONE',  ( -3.131220383487408200E-013, 4.284646129522862200, -0.04083709750642799300 ) ) ;
#8 = DIRECTION ( 'NONE',  ( -0.0000000000000000000, -0.0000000000000000000, -1.000000000000000000 ) ) ;
#9 = DIRECTION ( 'NONE',  ( 1.000000000000000000, -1.776356839400250500E-015, 0.0000000000000000000 ) ) ;
#10 = APPROVAL_STATUS ( 'not_yet_approved' ) ;
#11 = ORIENTED_EDGE ( 'NONE', *, *, #118, .F. ) ;
#12 = ADVANCED_FACE ( 'NONE', ( #17 ), #199, .T. ) ;
#13 = DIRECTION ( 'NONE',  ( 1.000000000000000000, -3.447554618161900100E-016, -2.979388830238920100E-016 ) ) ;
#14 = CARTESIAN_POINT ( 'NONE',  ( -1.136868377216160000E-013, 1.705302565824239900E-013, 674.2999999999999500 ) ) ;
#15 = CALENDAR_DATE ( 2018, 21, 12 ) ;
#16 = CC_DESIGN_PERSON_AND_ORGANIZATION_ASSIGNMENT ( #186, #200, ( #231 ) ) ;
#17 = FACE_OUTER_BOUND ( 'NONE', #190, .T. ) ;
#18 = CC_DESIGN_APPROVAL ( #224, ( #231 ) ) ;
#19 = CIRCLE ( 'NONE', #189, 12.69999999999999900 ) ;
#20 = CARTESIAN_POINT ( 'NONE',  ( -8.518422466655755100, 4.284646129522865700, -0.0004840207145343266100 ) ) ;
#21 = CIRCLE ( 'NONE', #203, 12.69999999999999900 ) ;
#22 = ORIENTED_EDGE ( 'NONE', *, *, #111, .T. ) ;
#23 = CARTESIAN_POINT ( 'NONE',  ( -12.77696466159254900, -4.284646129522749400, 0.08021851075735453300 ) ) ;
#24 = AXIS2_PLACEMENT_3D ( 'NONE', #85, #228, #9 ) ;
#25 = PRODUCT_DEFINITION_SHAPE ( 'NONE', 'NONE',  #132 ) ;
#26 = CARTESIAN_POINT ( 'NONE',  ( -3.160763486589460700E-013, -4.284646129522754700, -0.04083709750643094900 ) ) ;
#27 = CARTESIAN_POINT ( 'NONE',  ( 8.518422466655577500, 4.284646129522859500, -0.0004840207145584770500 ) ) ;
#28 = SECURITY_CLASSIFICATION ( '', '', #33 ) ;
#29 = CARTESIAN_POINT ( 'NONE',  ( -4.753142324176451400E-013, 4.284646129522863100, -0.04083709750639789900 ) ) ;
#30 = COORDINATED_UNIVERSAL_TIME_OFFSET ( 2, 0, .AHEAD. ) ;
#31 = CARTESIAN_POINT ( 'NONE',  ( 4.258275156776077700, -12.85238165132178900, 0.1224964552074535000 ) ) ;
#32 = CARTESIAN_POINT ( 'NONE',  ( 12.69999999999999900, 2.442490654175340100E-015, 0.1196087099536540000 ) ) ;
#33 = SECURITY_CLASSIFICATION_LEVEL ( 'unclassified' ) ;
#34 = CC_DESIGN_PERSON_AND_ORGANIZATION_ASSIGNMENT ( #226, #72, ( #231 ) ) ;
#35 = ORGANIZATION ( 'UNSPECIFIED', 'UNSPECIFIED', '' ) ;
#36 = APPROVAL_PERSON_ORGANIZATION ( #39, #174, #126 ) ;
#37 = ORIENTED_EDGE ( 'NONE', *, *, #131, .F. ) ;
#38 = AXIS2_PLACEMENT_3D ( 'NONE', #14, #13, #74 ) ;
#39 = PERSON_AND_ORGANIZATION ( #95, #35 ) ;
#40 = PERSON_AND_ORGANIZATION ( #95, #35 ) ;
#41 = DIRECTION ( 'NONE',  ( 0.0000000000000000000, 0.0000000000000000000, 1.000000000000000000 ) ) ;
#42 = CARTESIAN_POINT ( 'NONE',  ( -8.518422466655760400, -4.284646129522751100, -0.0004840207145372946700 ) ) ;
#43 = DIRECTION ( 'NONE',  ( 1.000000000000000000, 0.0000000000000000000, 0.0000000000000000000 ) ) ;
#44 = PERSON_AND_ORGANIZATION ( #95, #35 ) ;
#45 = CC_DESIGN_PERSON_AND_ORGANIZATION_ASSIGNMENT ( #167, #104, ( #28 ) ) ;
#46 = CARTESIAN_POINT ( 'NONE',  ( -4.258275156776565300, 12.85238165132189700, 0.1224964552074872300 ) ) ;
#47 = ORIENTED_EDGE ( 'NONE', *, *, #118, .T. ) ;
#48 = DIRECTION ( 'NONE',  ( -0.0000000000000000000, -0.0000000000000000000, -1.000000000000000000 ) ) ;
#49 = APPLICATION_CONTEXT ( 'configuration controlled 3d designs of mechanical parts and assemblies' ) ;
#50 = DIRECTION ( 'NONE',  ( 0.0000000000000000000, 0.0000000000000000000, 1.000000000000000000 ) ) ;
#51 = ADVANCED_BREP_SHAPE_REPRESENTATION ( '110-0265E BK7 pl-cx 25.4 F1300', ( #101, #153 ), #136 ) ;
#52 = DIRECTION ( 'NONE',  ( 0.0000000000000000000, 0.0000000000000000000, 1.000000000000000000 ) ) ;
#53 = FACE_OUTER_BOUND ( 'NONE', #154, .T. ) ;
#54 = EDGE_LOOP ( 'NONE', ( #180, #204, #83 ) ) ;
#55 = CC_DESIGN_PERSON_AND_ORGANIZATION_ASSIGNMENT ( #205, #124, ( #132 ) ) ;
#56 = APPROVAL ( #162, 'UNSPECIFIED' ) ;
#57 = ORIENTED_EDGE ( 'NONE', *, *, #158, .F. ) ;
#58 = CIRCLE ( 'NONE', #147, 12.69999999999999900 ) ;
#59 = VECTOR ( 'NONE', #41, 1000.000000000000000 ) ;
#60 = AXIS2_PLACEMENT_3D ( 'NONE', #64, #8, #196 ) ;
#61 = CARTESIAN_POINT ( 'NONE',  ( -4.805184028455755700E-013, -4.284646129522753800, -0.04083709750640088200 ) ) ;
#62 =( BOUNDED_SURFACE ( )  B_SPLINE_SURFACE ( 3, 3, ( 
 ( #209, #175, #3, #156 ),
 ( #23, #42, #191, #61 ),
 ( #96, #20, #171, #29 ),
 ( #197, #5, #46, #178 ) ),
 .UNSPECIFIED., .F., .F., .T. ) 
 B_SPLINE_SURFACE_WITH_KNOTS ( ( 4, 4 ),
 ( 4, 4 ),
 ( 0.0000000000000000000, 1.000000000000000000 ),
 ( 0.0000000000000000000, 1.000000000000000000 ),
 .UNSPECIFIED. ) 
 GEOMETRIC_REPRESENTATION_ITEM ( )  RATIONAL_B_SPLINE_SURFACE ( (
 ( 1.000000000000000000, 0.9999700798374334700, 0.9999700798374334700, 1.000000000000000000),
 ( 0.9998788902514138500, 0.9998489737124707200, 0.9998489737124707200, 0.9998788902514138500),
 ( 0.9998788902514138500, 0.9998489737124707200, 0.9998489737124707200, 0.9998788902514138500),
 ( 1.000000000000000000, 0.9999700798374334700, 0.9999700798374334700, 1.000000000000000000) ) ) 
 REPRESENTATION_ITEM ( '' )  SURFACE ( )  );
#63 = COORDINATED_UNIVERSAL_TIME_OFFSET ( 2, 0, .AHEAD. ) ;
#64 = CARTESIAN_POINT ( 'NONE',  ( 4.996003610813200500E-016, 2.442490654175340100E-015, 3.000000000000000000 ) ) ;
#65 = AXIS2_PLACEMENT_3D ( 'NONE', #114, #133, #43 ) ;
#66 = CARTESIAN_POINT ( 'NONE',  ( 4.996003610813200500E-016, 2.442490654175340100E-015, 0.1196087099536540000 ) ) ;
#67 = CARTESIAN_POINT ( 'NONE',  ( 4.996003610813200500E-016, 2.442490654175340100E-015, 0.1196087099536540000 ) ) ;
#68 = FACE_OUTER_BOUND ( 'NONE', #129, .T. ) ;
#69 = EDGE_LOOP ( 'NONE', ( #57, #194, #77 ) ) ;
#70 = DATE_TIME_ROLE ( 'classification_date' ) ;
#71 = AXIS2_PLACEMENT_3D ( 'NONE', #181, #212, #99 ) ;
#72 = PERSON_AND_ORGANIZATION_ROLE ( 'creator' ) ;
#73 = CIRCLE ( 'NONE', #60, 12.69999999999999900 ) ;
#74 = DIRECTION ( 'NONE',  ( -3.447554618161899100E-016, -1.000000000000000000, 0.0000000000000000000 ) ) ;
#75 = CARTESIAN_POINT ( 'NONE',  ( 0.0000000000000000000, 26.11199999999999800, 3.000000000000000000 ) ) ;
#76 = DATE_AND_TIME ( #121, #79 ) ;
#77 = ORIENTED_EDGE ( 'NONE', *, *, #107, .T. ) ;
#78 = EDGE_CURVE ( 'NONE', #227, #223, #161, .T. ) ;
#79 = LOCAL_TIME ( 8, 45, 44.00000000000000000, #30 ) ;
#80 = ORIENTED_EDGE ( 'NONE', *, *, #215, .F. ) ;
#81 = DIRECTION ( 'NONE',  ( 1.000000000000000000, 0.0000000000000000000, 0.0000000000000000000 ) ) ;
#82 = CARTESIAN_POINT ( 'NONE',  ( -3.101196013159481400E-013, 12.85238165132189500, 0.1224964552074547800 ) ) ;
#83 = ORIENTED_EDGE ( 'NONE', *, *, #91, .T. ) ;
#84 = CARTESIAN_POINT ( 'NONE',  ( 4.996003610813200500E-016, 2.442490654175340100E-015, 0.1196087099536540000 ) ) ;
#85 = CARTESIAN_POINT ( 'NONE',  ( 4.996003610813200500E-016, 2.442490654175340100E-015, 0.1196087099536540000 ) ) ;
#86 =( NAMED_UNIT ( * ) PLANE_ANGLE_UNIT ( ) SI_UNIT ( $, .RADIAN. ) );
#87 = CARTESIAN_POINT ( 'NONE',  ( 12.77386992534614900, 12.85238165132189000, 0.2435227423305102400 ) ) ;
#88 = ADVANCED_FACE ( 'NONE', ( #208 ), #62, .T. ) ;
#89 = ADVANCED_FACE ( 'NONE', ( #68 ), #214, .T. ) ;
#90 = APPLICATION_PROTOCOL_DEFINITION ( 'international standard', 'config_control_design', 1994, #217 ) ;
#91 = EDGE_CURVE ( 'NONE', #109, #134, #92, .T. ) ;
#92 = CIRCLE ( 'NONE', #24, 12.69999999999999900 ) ;
#93 = DATE_AND_TIME ( #6, #179 ) ;
#94 = ORIENTED_EDGE ( 'NONE', *, *, #107, .F. ) ;
#95 = PERSON ( 'UNSPECIFIED', 'UNSPECIFIED', 'UNSPECIFIED', ('UNSPECIFIED'), ('UNSPECIFIED'), ('UNSPECIFIED') ) ;
#96 = CARTESIAN_POINT ( 'NONE',  ( -12.77696466159254400, 4.284646129522866600, 0.08021851075735748900 ) ) ;
#97 = CARTESIAN_POINT ( 'NONE',  ( 12.77386992534614100, -12.85238165132179200, 0.2435227423305102400 ) ) ;
#98 = CARTESIAN_POINT ( 'NONE',  ( 8.518422466655573900, -4.284646129522757400, -0.0004840207145614315000 ) ) ;
#99 = DIRECTION ( 'NONE',  ( 1.000000000000000000, 0.0000000000000000000, 0.0000000000000000000 ) ) ;
#100 = DIRECTION ( 'NONE',  ( 0.0000000000000000000, 0.0000000000000000000, 1.000000000000000000 ) ) ;
#101 = MANIFOLD_SOLID_BREP ( 'Imported1', #155 ) ;
#102 = CARTESIAN_POINT ( 'NONE',  ( -12.69999999999999900, 3.997792089092478900E-015, 3.000000000000000000 ) ) ;
#103 = CARTESIAN_POINT ( 'NONE',  ( -12.69999999999999900, 3.997792089092478900E-015, 0.1196087099536540000 ) ) ;
#104 = PERSON_AND_ORGANIZATION_ROLE ( 'classification_officer' ) ;
#105 = CIRCLE ( 'NONE', #38, 674.2999999999999500 ) ;
#106 = ORIENTED_EDGE ( 'NONE', *, *, #78, .T. ) ;
#107 = EDGE_CURVE ( 'NONE', #227, #109, #19, .T. ) ;
#108 = CALENDAR_DATE ( 2018, 21, 12 ) ;
#109 = VERTEX_POINT ( 'NONE', #137 ) ;
#110 = CARTESIAN_POINT ( 'NONE',  ( -12.69999999999999900, 3.997792089092478900E-015, 0.1196087099536540000 ) ) ;
#111 = EDGE_CURVE ( 'NONE', #146, #223, #4, .T. ) ;
#112 = PERSON_AND_ORGANIZATION ( #95, #35 ) ;
#113 = CC_DESIGN_DATE_AND_TIME_ASSIGNMENT ( #76, #70, ( #28 ) ) ;
#114 = CARTESIAN_POINT ( 'NONE',  ( 4.996003610813200500E-016, 2.442490654175340100E-015, 0.1196087099536540000 ) ) ;
#115 = DESIGN_CONTEXT ( 'detailed design', #217, 'design' ) ;
#116 = SHAPE_DEFINITION_REPRESENTATION ( #25, #51 ) ;
#117 = DIRECTION ( 'NONE',  ( 1.000000000000000000, 0.0000000000000000000, 0.0000000000000000000 ) ) ;
#118 = EDGE_CURVE ( 'NONE', #223, #146, #73, .T. ) ;
#119 = CARTESIAN_POINT ( 'NONE',  ( 12.77696466159266600, -4.284646129522758300, 0.08021851075733843500 ) ) ;
#120 = CARTESIAN_POINT ( 'NONE',  ( 8.516359201125069900, 12.85238165132189200, 0.1628397579933131800 ) ) ;
#121 = CALENDAR_DATE ( 2018, 21, 12 ) ;
#122 =( NAMED_UNIT ( * ) SI_UNIT ( $, .STERADIAN. ) SOLID_ANGLE_UNIT ( ) );
#123 = EDGE_CURVE ( 'NONE', #188, #227, #21, .T. ) ;
#124 = PERSON_AND_ORGANIZATION_ROLE ( 'creator' ) ;
#125 = DATE_AND_TIME ( #108, #193 ) ;
#126 = APPROVAL_ROLE ( '' ) ;
#127 = PERSON_AND_ORGANIZATION_ROLE ( 'design_owner' ) ;
#128 = CALENDAR_DATE ( 2018, 21, 12 ) ;
#129 = EDGE_LOOP ( 'NONE', ( #94, #106, #47, #80, #152 ) ) ;
#130 = VECTOR ( 'NONE', #52, 1000.000000000000000 ) ;
#131 = EDGE_CURVE ( 'NONE', #134, #188, #58, .T. ) ;
#132 = PRODUCT_DEFINITION ( 'UNKNOWN', '', #231, #115 ) ;
#133 = DIRECTION ( 'NONE',  ( 0.0000000000000000000, 0.0000000000000000000, 1.000000000000000000 ) ) ;
#134 = VERTEX_POINT ( 'NONE', #229 ) ;
#135 = CC_DESIGN_SECURITY_CLASSIFICATION ( #28, ( #231 ) ) ;
#136 =( GEOMETRIC_REPRESENTATION_CONTEXT ( 3 ) GLOBAL_UNCERTAINTY_ASSIGNED_CONTEXT ( ( #173 ) ) GLOBAL_UNIT_ASSIGNED_CONTEXT ( ( #198, #86, #122 ) ) REPRESENTATION_CONTEXT ( 'NONE', 'WORKASPACE' ) );
#137 = CARTESIAN_POINT ( 'NONE',  ( -3.101729960941173600E-013, 12.69999999999970400, 0.1196087099535938400 ) ) ;
#138 = CARTESIAN_POINT ( 'NONE',  ( 8.516359201125062800, -12.85238165132179100, 0.1628397579933131800 ) ) ;
#139 = CARTESIAN_POINT ( 'NONE',  ( 4.259306812691823700, 4.284646129522860400, -0.04083709750642925500 ) ) ;
#140 = APPROVAL_DATE_TIME ( #125, #224 ) ;
#141 = ORIENTED_EDGE ( 'NONE', *, *, #123, .F. ) ;
#142 = CARTESIAN_POINT ( 'NONE',  ( -3.189814588592269400E-013, -12.85238165132178700, 0.1224964552074547800 ) ) ;
#143 = ADVANCED_FACE ( 'NONE', ( #211 ), #148, .T. ) ;
#144 = APPROVAL_ROLE ( '' ) ;
#145 = APPLICATION_PROTOCOL_DEFINITION ( 'international standard', 'config_control_design', 1994, #49 ) ;
#146 = VERTEX_POINT ( 'NONE', #157 ) ;
#147 = AXIS2_PLACEMENT_3D ( 'NONE', #66, #192, #81 ) ;
#148 =( BOUNDED_SURFACE ( )  B_SPLINE_SURFACE ( 3, 3, ( 
 ( #142, #31, #138, #97 ),
 ( #26, #159, #98, #119 ),
 ( #7, #139, #27, #195 ),
 ( #82, #232, #120, #87 ) ),
 .UNSPECIFIED., .F., .F., .F. ) 
 B_SPLINE_SURFACE_WITH_KNOTS ( ( 4, 4 ),
 ( 4, 4 ),
 ( 0.0000000000000000000, 1.000000000000000000 ),
 ( 0.0000000000000000000, 1.000000000000000000 ),
 .UNSPECIFIED. ) 
 GEOMETRIC_REPRESENTATION_ITEM ( )  RATIONAL_B_SPLINE_SURFACE ( (
 ( 1.000000000000000000, 0.9999700798374334700, 0.9999700798374334700, 1.000000000000000000),
 ( 0.9998788902514138500, 0.9998489737124707200, 0.9998489737124707200, 0.9998788902514138500),
 ( 0.9998788902514138500, 0.9998489737124707200, 0.9998489737124707200, 0.9998788902514138500),
 ( 1.000000000000000000, 0.9999700798374334700, 0.9999700798374334700, 1.000000000000000000) ) ) 
 REPRESENTATION_ITEM ( '' )  SURFACE ( )  );
#149 = DIRECTION ( 'NONE',  ( 1.000000000000000000, 0.0000000000000000000, 0.0000000000000000000 ) ) ;
#150 = LOCAL_TIME ( 8, 45, 44.00000000000000000, #63 ) ;
#151 = ORIENTED_EDGE ( 'NONE', *, *, #111, .F. ) ;
#152 = ORIENTED_EDGE ( 'NONE', *, *, #91, .F. ) ;
#153 = AXIS2_PLACEMENT_3D ( 'NONE', #216, #50, #149 ) ;
#154 = EDGE_LOOP ( 'NONE', ( #151, #11 ) ) ;
#155 = CLOSED_SHELL ( 'NONE', ( #143, #89, #88, #12, #163 ) ) ;
#156 = CARTESIAN_POINT ( 'NONE',  ( -4.839878497975291800E-013, -12.85238165132178700, 0.1224964552074848700 ) ) ;
#157 = CARTESIAN_POINT ( 'NONE',  ( 12.69999999999999900, 2.442490654175340100E-015, 3.000000000000000000 ) ) ;
#158 = EDGE_CURVE ( 'NONE', #188, #109, #105, .T. ) ;
#159 = CARTESIAN_POINT ( 'NONE',  ( 4.259306812691821000, -4.284646129522756500, -0.04083709750643221800 ) ) ;
#160 = CARTESIAN_POINT ( 'NONE',  ( 4.996003610813200500E-016, 2.442490654175340100E-015, 0.1196087099536540000 ) ) ;
#161 = LINE ( 'NONE', #110, #59 ) ;
#162 = APPROVAL_STATUS ( 'not_yet_approved' ) ;
#163 = ADVANCED_FACE ( 'NONE', ( #53 ), #185, .T. ) ;
#164 = CC_DESIGN_PERSON_AND_ORGANIZATION_ASSIGNMENT ( #44, #127, ( #207 ) ) ;
#165 = DIRECTION ( 'NONE',  ( 1.000000000000000000, 0.0000000000000000000, -0.0000000000000000000 ) ) ;
#166 = COORDINATED_UNIVERSAL_TIME_OFFSET ( 2, 0, .AHEAD. ) ;
#167 = PERSON_AND_ORGANIZATION ( #95, #35 ) ;
#168 = ORIENTED_EDGE ( 'NONE', *, *, #78, .F. ) ;
#169 = APPROVAL_DATE_TIME ( #93, #174 ) ;
#170 = AXIS2_PLACEMENT_3D ( 'NONE', #67, #100, #117 ) ;
#171 = CARTESIAN_POINT ( 'NONE',  ( -4.259306812692305000, 4.284646129522864800, -0.04083709750639560200 ) ) ;
#172 = LINE ( 'NONE', #32, #130 ) ;
#173 = UNCERTAINTY_MEASURE_WITH_UNIT (LENGTH_MEASURE( 1.000000000000000100E-005 ), #198, 'distance_accuracy_value', 'NONE');
#174 = APPROVAL ( #184, 'UNSPECIFIED' ) ;
#175 = CARTESIAN_POINT ( 'NONE',  ( -8.516359201125252900, -12.85238165132178300, 0.1628397579933373300 ) ) ;
#176 = DATE_AND_TIME ( #128, #222 ) ;
#177 = DIRECTION ( 'NONE',  ( -0.0000000000000000000, -0.0000000000000000000, -1.000000000000000000 ) ) ;
#178 = CARTESIAN_POINT ( 'NONE',  ( -4.735795089416683400E-013, 12.85238165132189500, 0.1224964552074849200 ) ) ;
#179 = LOCAL_TIME ( 8, 45, 44.00000000000000000, #1 ) ;
#180 = ORIENTED_EDGE ( 'NONE', *, *, #131, .T. ) ;
#181 = CARTESIAN_POINT ( 'NONE',  ( 4.996003610813200500E-016, 2.442490654175340100E-015, 3.000000000000000000 ) ) ;
#182 = APPROVAL_ROLE ( '' ) ;
#183 = CARTESIAN_POINT ( 'NONE',  ( -3.189297848242484000E-013, -12.69999999999953200, 0.1196087099535938400 ) ) ;
#184 = APPROVAL_STATUS ( 'not_yet_approved' ) ;
#185 = PLANE ( 'NONE',  #206 ) ;
#186 = PERSON_AND_ORGANIZATION ( #95, #35 ) ;
#187 = APPROVAL_DATE_TIME ( #219, #56 ) ;
#188 = VERTEX_POINT ( 'NONE', #183 ) ;
#189 = AXIS2_PLACEMENT_3D ( 'NONE', #84, #48, #230 ) ;
#190 = EDGE_LOOP ( 'NONE', ( #168, #141, #37, #234, #22 ) ) ;
#191 = CARTESIAN_POINT ( 'NONE',  ( -4.259306812692310400, -4.284646129522752000, -0.04083709750639856500 ) ) ;
#192 = DIRECTION ( 'NONE',  ( -0.0000000000000000000, -0.0000000000000000000, -1.000000000000000000 ) ) ;
#193 = LOCAL_TIME ( 8, 45, 44.00000000000000000, #166 ) ;
#194 = ORIENTED_EDGE ( 'NONE', *, *, #123, .T. ) ;
#195 = CARTESIAN_POINT ( 'NONE',  ( 12.77696466159267000, 4.284646129522857700, 0.08021851075734139100 ) ) ;
#196 = DIRECTION ( 'NONE',  ( 1.000000000000000000, 0.0000000000000000000, 0.0000000000000000000 ) ) ;
#197 = CARTESIAN_POINT ( 'NONE',  ( -12.77386992534601600, 12.85238165132190100, 0.2435227423305264000 ) ) ;
#198 =( LENGTH_UNIT ( ) NAMED_UNIT ( * ) SI_UNIT ( .MILLI., .METRE. ) );
#199 = CYLINDRICAL_SURFACE ( 'NONE', #65, 12.69999999999999900 ) ;
#200 = PERSON_AND_ORGANIZATION_ROLE ( 'design_supplier' ) ;
#201 = DATE_TIME_ROLE ( 'creation_date' ) ;
#202 = CC_DESIGN_APPROVAL ( #56, ( #28 ) ) ;
#203 = AXIS2_PLACEMENT_3D ( 'NONE', #160, #177, #213 ) ;
#204 = ORIENTED_EDGE ( 'NONE', *, *, #158, .T. ) ;
#205 = PERSON_AND_ORGANIZATION ( #95, #35 ) ;
#206 = AXIS2_PLACEMENT_3D ( 'NONE', #75, #221, #165 ) ;
#207 = PRODUCT ( '110-0265E BK7 pl-cx 25.4 F1300', '110-0265E BK7 pl-cx 25.4 F1300', '', ( #218 ) ) ;
#208 = FACE_OUTER_BOUND ( 'NONE', #69, .T. ) ;
#209 = CARTESIAN_POINT ( 'NONE',  ( -12.77386992534602500, -12.85238165132178200, 0.2435227423305264000 ) ) ;
#210 = CC_DESIGN_APPROVAL ( #174, ( #132 ) ) ;
#211 = FACE_OUTER_BOUND ( 'NONE', #54, .T. ) ;
#212 = DIRECTION ( 'NONE',  ( -0.0000000000000000000, -0.0000000000000000000, -1.000000000000000000 ) ) ;
#213 = DIRECTION ( 'NONE',  ( 1.000000000000000000, 0.0000000000000000000, 0.0000000000000000000 ) ) ;
#214 = CYLINDRICAL_SURFACE ( 'NONE', #170, 12.69999999999999900 ) ;
#215 = EDGE_CURVE ( 'NONE', #134, #146, #172, .T. ) ;
#216 = CARTESIAN_POINT ( 'NONE',  ( 0.0000000000000000000, 0.0000000000000000000, 0.0000000000000000000 ) ) ;
#217 = APPLICATION_CONTEXT ( 'configuration controlled 3d designs of mechanical parts and assemblies' ) ;
#218 = MECHANICAL_CONTEXT ( 'NONE', #49, 'mechanical' ) ;
#219 = DATE_AND_TIME ( #15, #150 ) ;
#220 = PRODUCT_RELATED_PRODUCT_CATEGORY ( 'detail', '', ( #207 ) ) ;
#221 = DIRECTION ( 'NONE',  ( 0.0000000000000000000, 0.0000000000000000000, 1.000000000000000000 ) ) ;
#222 = LOCAL_TIME ( 8, 45, 44.00000000000000000, #225 ) ;
#223 = VERTEX_POINT ( 'NONE', #102 ) ;
#224 = APPROVAL ( #10, 'UNSPECIFIED' ) ;
#225 = COORDINATED_UNIVERSAL_TIME_OFFSET ( 2, 0, .AHEAD. ) ;
#226 = PERSON_AND_ORGANIZATION ( #95, #35 ) ;
#227 = VERTEX_POINT ( 'NONE', #103 ) ;
#228 = DIRECTION ( 'NONE',  ( -0.0000000000000000000, -0.0000000000000000000, -1.000000000000000000 ) ) ;
#229 = CARTESIAN_POINT ( 'NONE',  ( 12.69999999999999900, 2.442490654175340100E-015, 0.1196087099536540000 ) ) ;
#230 = DIRECTION ( 'NONE',  ( 1.000000000000000000, 8.881784197001252300E-016, 0.0000000000000000000 ) ) ;
#231 = PRODUCT_DEFINITION_FORMATION_WITH_SPECIFIED_SOURCE ( 'ANY', '', #207, .NOT_KNOWN. ) ;
#232 = CARTESIAN_POINT ( 'NONE',  ( 4.258275156776086600, 12.85238165132189400, 0.1224964552074535000 ) ) ;
#233 = APPROVAL_PERSON_ORGANIZATION ( #40, #224, #144 ) ;
#234 = ORIENTED_EDGE ( 'NONE', *, *, #215, .T. ) ;
#235 = APPROVAL_PERSON_ORGANIZATION ( #112, #56, #182 ) ;
ENDSEC;
END-ISO-10303-21;
