ISO-10303-21;
HEADER;
FILE_DESCRIPTION (( 'STEP AP203' ),
    '1' );
FILE_NAME ('110-0264E BK7 pl-cx 25.4 F1250.STEP',
    '2018-12-21T06:45:57',
    ( '' ),
    ( '' ),
    'SwSTEP 2.0',
    'SolidWorks 2017',
    '' );
FILE_SCHEMA (( 'CONFIG_CONTROL_DESIGN' ));
ENDSEC;

DATA;
#1 = COORDINATED_UNIVERSAL_TIME_OFFSET ( 2, 0, .AHEAD. ) ;
#2 = ADVANCED_BREP_SHAPE_REPRESENTATION ( '110-0264E BK7 pl-cx 25.4 F1250', ( #28, #135 ), #204 ) ;
#3 = FACE_OUTER_BOUND ( 'NONE', #87, .T. ) ;
#4 = LOCAL_TIME ( 8, 45, 57.00000000000000000, #131 ) ;
#5 = PRODUCT ( '110-0264E BK7 pl-cx 25.4 F1250', '110-0264E BK7 pl-cx 25.4 F1250', '', ( #152 ) ) ;
#6 = CYLINDRICAL_SURFACE ( 'NONE', #7, 12.69999999999999900 ) ;
#7 = AXIS2_PLACEMENT_3D ( 'NONE', #26, #81, #213 ) ;
#8 = PERSON_AND_ORGANIZATION ( #93, #162 ) ;
#9 = AXIS2_PLACEMENT_3D ( 'NONE', #27, #49, #117 ) ;
#10 = PERSON_AND_ORGANIZATION ( #93, #162 ) ;
#11 = APPROVAL_STATUS ( 'not_yet_approved' ) ;
#12 = DIRECTION ( 'NONE',  ( -0.0000000000000000000, -0.0000000000000000000, -1.000000000000000000 ) ) ;
#13 = CIRCLE ( 'NONE', #9, 12.69999999999999900 ) ;
#14 = ORIENTED_EDGE ( 'NONE', *, *, #203, .F. ) ;
#15 = CARTESIAN_POINT ( 'NONE',  ( -8.518500367596821800, -4.284687923894983500, -0.0005034667972139250200 ) ) ;
#16 = DATE_TIME_ROLE ( 'classification_date' ) ;
#17 = CARTESIAN_POINT ( 'NONE',  ( -4.258237816076939600, -12.85238015595877700, 0.1273904256585326700 ) ) ;
#18 = AXIS2_PLACEMENT_3D ( 'NONE', #32, #20, #176 ) ;
#19 = APPROVAL_PERSON_ORGANIZATION ( #174, #73, #123 ) ;
#20 = DIRECTION ( 'NONE',  ( -0.0000000000000000000, -0.0000000000000000000, -1.000000000000000000 ) ) ;
#21 = UNCERTAINTY_MEASURE_WITH_UNIT (LENGTH_MEASURE( 1.000000000000000100E-005 ), #190, 'distance_accuracy_value', 'NONE');
#22 = CC_DESIGN_PERSON_AND_ORGANIZATION_ASSIGNMENT ( #8, #85, ( #5 ) ) ;
#23 = ORIENTED_EDGE ( 'NONE', *, *, #72, .T. ) ;
#24 = CALENDAR_DATE ( 2018, 21, 12 ) ;
#25 = PLANE ( 'NONE',  #114 ) ;
#26 = CARTESIAN_POINT ( 'NONE',  ( 4.996003610813200500E-016, 2.442490654175340100E-015, 0.1243873166290380100 ) ) ;
#27 = CARTESIAN_POINT ( 'NONE',  ( 4.996003610813200500E-016, 2.442490654175340100E-015, 3.000000000000000000 ) ) ;
#28 = MANIFOLD_SOLID_BREP ( 'Imported1', #223 ) ;
#29 = CARTESIAN_POINT ( 'NONE',  ( -12.69999999999999900, 3.997792089092478900E-015, 0.1243873166290380100 ) ) ;
#30 = PERSON_AND_ORGANIZATION_ROLE ( 'creator' ) ;
#31 = CARTESIAN_POINT ( 'NONE',  ( 8.518500367596580200, 4.284687923895029700, -0.0005034667972334814300 ) ) ;
#32 = CARTESIAN_POINT ( 'NONE',  ( 4.996003610813200500E-016, 2.442490654175340100E-015, 0.1243873166290380100 ) ) ;
#33 = COORDINATED_UNIVERSAL_TIME_OFFSET ( 2, 0, .AHEAD. ) ;
#34 = ORIENTED_EDGE ( 'NONE', *, *, #154, .F. ) ;
#35 = CARTESIAN_POINT ( 'NONE',  ( -12.77368004236844700, 12.85238015595882600, 0.2532500872184373400 ) ) ;
#36 = ORIENTED_EDGE ( 'NONE', *, *, #203, .T. ) ;
#37 = CARTESIAN_POINT ( 'NONE',  ( 0.0000000000000000000, 26.11199999999999800, 3.000000000000000000 ) ) ;
#38 = LOCAL_TIME ( 8, 45, 57.00000000000000000, #33 ) ;
#39 = VECTOR ( 'NONE', #134, 1000.000000000000000 ) ;
#40 = VERTEX_POINT ( 'NONE', #188 ) ;
#41 = AXIS2_PLACEMENT_3D ( 'NONE', #48, #229, #139 ) ;
#42 = CALENDAR_DATE ( 2018, 21, 12 ) ;
#43 = CIRCLE ( 'NONE', #143, 12.69999999999999900 ) ;
#44 =( BOUNDED_SURFACE ( )  B_SPLINE_SURFACE ( 3, 3, ( 
 ( #65, #55, #17, #145 ),
 ( #122, #15, #67, #144 ),
 ( #83, #214, #142, #56 ),
 ( #35, #179, #158, #108 ) ),
 .UNSPECIFIED., .F., .F., .F. ) 
 B_SPLINE_SURFACE_WITH_KNOTS ( ( 4, 4 ),
 ( 4, 4 ),
 ( 0.0000000000000000000, 1.000000000000000000 ),
 ( 0.0000000000000000000, 1.000000000000000000 ),
 .UNSPECIFIED. ) 
 GEOMETRIC_REPRESENTATION_ITEM ( )  RATIONAL_B_SPLINE_SURFACE ( (
 ( 1.000000000000000000, 0.9999676415152499700, 0.9999676415152499700, 1.000000000000000000),
 ( 0.9998690207426912400, 0.9998366664962314900, 0.9998366664962314900, 0.9998690207426912400),
 ( 0.9998690207426912400, 0.9998366664962314900, 0.9998366664962314900, 0.9998690207426912400),
 ( 1.000000000000000000, 0.9999676415152499700, 0.9999676415152499700, 1.000000000000000000) ) ) 
 REPRESENTATION_ITEM ( '' )  SURFACE ( )  );
#45 = LOCAL_TIME ( 8, 45, 57.00000000000000000, #89 ) ;
#46 = LOCAL_TIME ( 8, 45, 57.00000000000000000, #199 ) ;
#47 = ORIENTED_EDGE ( 'NONE', *, *, #88, .F. ) ;
#48 = CARTESIAN_POINT ( 'NONE',  ( 4.996003610813200500E-016, 2.442490654175340100E-015, 0.1243873166290380100 ) ) ;
#49 = DIRECTION ( 'NONE',  ( -0.0000000000000000000, -0.0000000000000000000, -1.000000000000000000 ) ) ;
#50 = PERSON_AND_ORGANIZATION_ROLE ( 'classification_officer' ) ;
#51 = DATE_AND_TIME ( #124, #4 ) ;
#52 = CARTESIAN_POINT ( 'NONE',  ( 4.258237816076561300, 12.85238015595882300, 0.1273904256584563500 ) ) ;
#53 =( NAMED_UNIT ( * ) SI_UNIT ( $, .STERADIAN. ) SOLID_ANGLE_UNIT ( ) );
#54 = DIRECTION ( 'NONE',  ( -0.0000000000000000000, -0.0000000000000000000, -1.000000000000000000 ) ) ;
#55 = CARTESIAN_POINT ( 'NONE',  ( -8.516268946968390100, -12.85238015595877700, 0.1693450037650558200 ) ) ;
#56 = CARTESIAN_POINT ( 'NONE',  ( -3.365363543395005300E-013, 4.284687923895030600, -0.04246903778238394400 ) ) ;
#57 = DATE_AND_TIME ( #97, #68 ) ;
#58 = FACE_OUTER_BOUND ( 'NONE', #202, .T. ) ;
#59 = EDGE_CURVE ( 'NONE', #129, #163, #166, .T. ) ;
#60 = EDGE_CURVE ( 'NONE', #40, #110, #13, .T. ) ;
#61 = ORIENTED_EDGE ( 'NONE', *, *, #59, .T. ) ;
#62 = PRODUCT_DEFINITION ( 'UNKNOWN', '', #112, #126 ) ;
#63 = CARTESIAN_POINT ( 'NONE',  ( -1.780603663280862400E-013, 12.69999999999855700, 0.1243873166290211800 ) ) ;
#64 = APPROVAL_ROLE ( '' ) ;
#65 = CARTESIAN_POINT ( 'NONE',  ( -12.77368004236844700, -12.85238015595877800, 0.2532500872184373400 ) ) ;
#66 = ADVANCED_FACE ( 'NONE', ( #150 ), #113, .T. ) ;
#67 = CARTESIAN_POINT ( 'NONE',  ( -4.259353553468833400, -4.284687923894983500, -0.04246903778238227100 ) ) ;
#68 = LOCAL_TIME ( 8, 45, 57.00000000000000000, #1 ) ;
#69 = CARTESIAN_POINT ( 'NONE',  ( 4.996003610813200500E-016, 2.442490654175340100E-015, 0.1243873166290380100 ) ) ;
#70 = ORIENTED_EDGE ( 'NONE', *, *, #217, .T. ) ;
#71 = EDGE_LOOP ( 'NONE', ( #178, #70, #36 ) ) ;
#72 = EDGE_CURVE ( 'NONE', #129, #110, #210, .T. ) ;
#73 = APPROVAL ( #234, 'UNSPECIFIED' ) ;
#74 = APPROVAL_DATE_TIME ( #51, #183 ) ;
#75 = ORIENTED_EDGE ( 'NONE', *, *, #217, .F. ) ;
#76 = CIRCLE ( 'NONE', #41, 12.69999999999999900 ) ;
#77 = DATE_AND_TIME ( #42, #46 ) ;
#78 = PRODUCT_RELATED_PRODUCT_CATEGORY ( 'detail', '', ( #5 ) ) ;
#79 = PERSON_AND_ORGANIZATION ( #93, #162 ) ;
#80 = CARTESIAN_POINT ( 'NONE',  ( 5.684341886080800200E-014, 5.684341886080800200E-014, 648.3999999999999800 ) ) ;
#81 = DIRECTION ( 'NONE',  ( 0.0000000000000000000, 0.0000000000000000000, 1.000000000000000000 ) ) ;
#82 = DIRECTION ( 'NONE',  ( 1.000000000000000000, 0.0000000000000000000, 0.0000000000000000000 ) ) ;
#83 = CARTESIAN_POINT ( 'NONE',  ( -12.77702698377259700, 4.284687923895030600, 0.08342360134632025000 ) ) ;
#84 = APPROVAL_PERSON_ORGANIZATION ( #127, #96, #232 ) ;
#85 = PERSON_AND_ORGANIZATION_ROLE ( 'design_owner' ) ;
#86 = PRODUCT_DEFINITION_SHAPE ( 'NONE', 'NONE',  #62 ) ;
#87 = EDGE_LOOP ( 'NONE', ( #220, #91, #227, #177, #130 ) ) ;
#88 = EDGE_CURVE ( 'NONE', #110, #40, #109, .T. ) ;
#89 = COORDINATED_UNIVERSAL_TIME_OFFSET ( 2, 0, .AHEAD. ) ;
#90 = AXIS2_PLACEMENT_3D ( 'NONE', #159, #54, #235 ) ;
#91 = ORIENTED_EDGE ( 'NONE', *, *, #101, .F. ) ;
#92 = SHAPE_DEFINITION_REPRESENTATION ( #86, #2 ) ;
#93 = PERSON ( 'UNSPECIFIED', 'UNSPECIFIED', 'UNSPECIFIED', ('UNSPECIFIED'), ('UNSPECIFIED'), ('UNSPECIFIED') ) ;
#94 = CC_DESIGN_PERSON_AND_ORGANIZATION_ASSIGNMENT ( #225, #50, ( #207 ) ) ;
#95 = ORIENTED_EDGE ( 'NONE', *, *, #59, .F. ) ;
#96 = APPROVAL ( #11, 'UNSPECIFIED' ) ;
#97 = CALENDAR_DATE ( 2018, 21, 12 ) ;
#98 = CARTESIAN_POINT ( 'NONE',  ( 8.516268946968148500, 12.85238015595882300, 0.1693450037650353900 ) ) ;
#99 = CYLINDRICAL_SURFACE ( 'NONE', #119, 12.69999999999999900 ) ;
#100 = CARTESIAN_POINT ( 'NONE',  ( 8.516268946968148500, -12.85238015595877700, 0.1693450037650353900 ) ) ;
#101 = EDGE_CURVE ( 'NONE', #184, #129, #169, .T. ) ;
#102 = CARTESIAN_POINT ( 'NONE',  ( -1.780592781463552700E-013, -12.85238015595877800, 0.1273904256584579300 ) ) ;
#103 = PERSON_AND_ORGANIZATION_ROLE ( 'design_supplier' ) ;
#104 = CARTESIAN_POINT ( 'NONE',  ( -1.781208270155889400E-013, 4.284687923895030600, -0.04246903778245615000 ) ) ;
#105 = APPLICATION_CONTEXT ( 'configuration controlled 3d designs of mechanical parts and assemblies' ) ;
#106 = CARTESIAN_POINT ( 'NONE',  ( 12.69999999999999900, 2.442490654175340100E-015, 0.1243873166290380100 ) ) ;
#107 = APPROVAL_STATUS ( 'not_yet_approved' ) ;
#108 = CARTESIAN_POINT ( 'NONE',  ( -3.382710778154773800E-013, 12.85238015595882600, 0.1273904256585300900 ) ) ;
#109 = CIRCLE ( 'NONE', #90, 12.69999999999999900 ) ;
#110 = VERTEX_POINT ( 'NONE', #197 ) ;
#111 = CC_DESIGN_APPROVAL ( #73, ( #207 ) ) ;
#112 = PRODUCT_DEFINITION_FORMATION_WITH_SPECIFIED_SOURCE ( 'ANY', '', #5, .NOT_KNOWN. ) ;
#113 =( BOUNDED_SURFACE ( )  B_SPLINE_SURFACE ( 3, 3, ( 
 ( #102, #153, #100, #231 ),
 ( #211, #133, #141, #171 ),
 ( #104, #189, #31, #151 ),
 ( #156, #52, #98, #206 ) ),
 .UNSPECIFIED., .F., .F., .T. ) 
 B_SPLINE_SURFACE_WITH_KNOTS ( ( 4, 4 ),
 ( 4, 4 ),
 ( 0.0000000000000000000, 1.000000000000000000 ),
 ( 0.0000000000000000000, 1.000000000000000000 ),
 .UNSPECIFIED. ) 
 GEOMETRIC_REPRESENTATION_ITEM ( )  RATIONAL_B_SPLINE_SURFACE ( (
 ( 1.000000000000000000, 0.9999676415152499700, 0.9999676415152499700, 1.000000000000000000),
 ( 0.9998690207426912400, 0.9998366664962314900, 0.9998366664962314900, 0.9998690207426912400),
 ( 0.9998690207426912400, 0.9998366664962314900, 0.9998366664962314900, 0.9998690207426912400),
 ( 1.000000000000000000, 0.9999676415152499700, 0.9999676415152499700, 1.000000000000000000) ) ) 
 REPRESENTATION_ITEM ( '' )  SURFACE ( )  );
#114 = AXIS2_PLACEMENT_3D ( 'NONE', #37, #216, #198 ) ;
#115 = ORIENTED_EDGE ( 'NONE', *, *, #101, .T. ) ;
#116 = DIRECTION ( 'NONE',  ( 1.000000000000000000, 0.0000000000000000000, 0.0000000000000000000 ) ) ;
#117 = DIRECTION ( 'NONE',  ( 1.000000000000000000, 0.0000000000000000000, 0.0000000000000000000 ) ) ;
#118 = ADVANCED_FACE ( 'NONE', ( #128 ), #25, .T. ) ;
#119 = AXIS2_PLACEMENT_3D ( 'NONE', #69, #219, #175 ) ;
#120 = DIRECTION ( 'NONE',  ( 1.000000000000000000, 0.0000000000000000000, 0.0000000000000000000 ) ) ;
#121 = APPLICATION_CONTEXT ( 'configuration controlled 3d designs of mechanical parts and assemblies' ) ;
#122 = CARTESIAN_POINT ( 'NONE',  ( -12.77702698377259900, -4.284687923894984400, 0.08342360134631934800 ) ) ;
#123 = APPROVAL_ROLE ( '' ) ;
#124 = CALENDAR_DATE ( 2018, 21, 12 ) ;
#125 = ORIENTED_EDGE ( 'NONE', *, *, #88, .T. ) ;
#126 = DESIGN_CONTEXT ( 'detailed design', #121, 'design' ) ;
#127 = PERSON_AND_ORGANIZATION ( #93, #162 ) ;
#128 = FACE_OUTER_BOUND ( 'NONE', #148, .T. ) ;
#129 = VERTEX_POINT ( 'NONE', #233 ) ;
#130 = ORIENTED_EDGE ( 'NONE', *, *, #60, .T. ) ;
#131 = COORDINATED_UNIVERSAL_TIME_OFFSET ( 2, 0, .AHEAD. ) ;
#132 = CC_DESIGN_PERSON_AND_ORGANIZATION_ASSIGNMENT ( #79, #30, ( #112 ) ) ;
#133 = CARTESIAN_POINT ( 'NONE',  ( 4.259353553468455000, -4.284687923894983500, -0.04246903778245858500 ) ) ;
#134 = DIRECTION ( 'NONE',  ( 0.0000000000000000000, 0.0000000000000000000, 1.000000000000000000 ) ) ;
#135 = AXIS2_PLACEMENT_3D ( 'NONE', #140, #136, #116 ) ;
#136 = DIRECTION ( 'NONE',  ( 0.0000000000000000000, 0.0000000000000000000, 1.000000000000000000 ) ) ;
#137 = DIRECTION ( 'NONE',  ( -0.0000000000000000000, -0.0000000000000000000, -1.000000000000000000 ) ) ;
#138 = ADVANCED_FACE ( 'NONE', ( #222 ), #44, .T. ) ;
#139 = DIRECTION ( 'NONE',  ( 1.000000000000000000, 0.0000000000000000000, 0.0000000000000000000 ) ) ;
#140 = CARTESIAN_POINT ( 'NONE',  ( 0.0000000000000000000, 0.0000000000000000000, 0.0000000000000000000 ) ) ;
#141 = CARTESIAN_POINT ( 'NONE',  ( 8.518500367596580200, -4.284687923894983500, -0.0005034667972343757900 ) ) ;
#142 = CARTESIAN_POINT ( 'NONE',  ( -4.259353553468831600, 4.284687923895029700, -0.04246903778238136200 ) ) ;
#143 = AXIS2_PLACEMENT_3D ( 'NONE', #208, #12, #120 ) ;
#144 = CARTESIAN_POINT ( 'NONE',  ( -3.382710778154773800E-013, -4.284687923894984400, -0.04246903778238485900 ) ) ;
#145 = CARTESIAN_POINT ( 'NONE',  ( -3.382710778154773800E-013, -12.85238015595877800, 0.1273904256585300900 ) ) ;
#146 = APPROVAL_DATE_TIME ( #77, #96 ) ;
#147 = VECTOR ( 'NONE', #195, 1000.000000000000000 ) ;
#148 = EDGE_LOOP ( 'NONE', ( #187, #47 ) ) ;
#149 = CC_DESIGN_APPROVAL ( #96, ( #62 ) ) ;
#150 = FACE_OUTER_BOUND ( 'NONE', #71, .T. ) ;
#151 = CARTESIAN_POINT ( 'NONE',  ( 12.77702698377249600, 4.284687923895030600, 0.08342360134630104300 ) ) ;
#152 = MECHANICAL_CONTEXT ( 'NONE', #105, 'mechanical' ) ;
#153 = CARTESIAN_POINT ( 'NONE',  ( 4.258237816076561300, -12.85238015595877700, 0.1273904256584563500 ) ) ;
#154 = EDGE_CURVE ( 'NONE', #164, #40, #200, .T. ) ;
#155 = SECURITY_CLASSIFICATION_LEVEL ( 'unclassified' ) ;
#156 = CARTESIAN_POINT ( 'NONE',  ( -1.780592781463552700E-013, 12.85238015595882600, 0.1273904256584579300 ) ) ;
#157 = DIRECTION ( 'NONE',  ( 0.0000000000000000000, -1.000000000000000000, -3.424500384408256100E-016 ) ) ;
#158 = CARTESIAN_POINT ( 'NONE',  ( -4.258237816076939600, 12.85238015595882300, 0.1273904256585326700 ) ) ;
#159 = CARTESIAN_POINT ( 'NONE',  ( 4.996003610813200500E-016, 2.442490654175340100E-015, 3.000000000000000000 ) ) ;
#160 = CC_DESIGN_PERSON_AND_ORGANIZATION_ASSIGNMENT ( #194, #230, ( #62 ) ) ;
#161 = EDGE_CURVE ( 'NONE', #164, #184, #76, .T. ) ;
#162 = ORGANIZATION ( 'UNSPECIFIED', 'UNSPECIFIED', '' ) ;
#163 = VERTEX_POINT ( 'NONE', #63 ) ;
#164 = VERTEX_POINT ( 'NONE', #106 ) ;
#165 = AXIS2_PLACEMENT_3D ( 'NONE', #80, #212, #157 ) ;
#166 = CIRCLE ( 'NONE', #226, 12.69999999999999900 ) ;
#167 = APPROVAL_DATE_TIME ( #224, #73 ) ;
#168 = CC_DESIGN_DATE_AND_TIME_ASSIGNMENT ( #57, #215, ( #62 ) ) ;
#169 = CIRCLE ( 'NONE', #18, 12.69999999999999900 ) ;
#170 =( NAMED_UNIT ( * ) PLANE_ANGLE_UNIT ( ) SI_UNIT ( $, .RADIAN. ) );
#171 = CARTESIAN_POINT ( 'NONE',  ( 12.77702698377249600, -4.284687923894984400, 0.08342360134630015500 ) ) ;
#172 = APPLICATION_PROTOCOL_DEFINITION ( 'international standard', 'config_control_design', 1994, #121 ) ;
#173 = CARTESIAN_POINT ( 'NONE',  ( 12.69999999999999900, 2.442490654175340100E-015, 0.1243873166290380100 ) ) ;
#174 = PERSON_AND_ORGANIZATION ( #93, #162 ) ;
#175 = DIRECTION ( 'NONE',  ( 1.000000000000000000, 0.0000000000000000000, 0.0000000000000000000 ) ) ;
#176 = DIRECTION ( 'NONE',  ( 1.000000000000000000, 0.0000000000000000000, 0.0000000000000000000 ) ) ;
#177 = ORIENTED_EDGE ( 'NONE', *, *, #154, .T. ) ;
#178 = ORIENTED_EDGE ( 'NONE', *, *, #161, .T. ) ;
#179 = CARTESIAN_POINT ( 'NONE',  ( -8.516268946968390100, 12.85238015595882300, 0.1693450037650558200 ) ) ;
#180 = APPROVAL_PERSON_ORGANIZATION ( #228, #183, #64 ) ;
#181 = CC_DESIGN_DATE_AND_TIME_ASSIGNMENT ( #186, #16, ( #207 ) ) ;
#182 = CIRCLE ( 'NONE', #165, 648.3999999999999800 ) ;
#183 = APPROVAL ( #107, 'UNSPECIFIED' ) ;
#184 = VERTEX_POINT ( 'NONE', #193 ) ;
#185 = CC_DESIGN_SECURITY_CLASSIFICATION ( #207, ( #112 ) ) ;
#186 = DATE_AND_TIME ( #24, #45 ) ;
#187 = ORIENTED_EDGE ( 'NONE', *, *, #60, .F. ) ;
#188 = CARTESIAN_POINT ( 'NONE',  ( 12.69999999999999900, 2.442490654175340100E-015, 3.000000000000000000 ) ) ;
#189 = CARTESIAN_POINT ( 'NONE',  ( 4.259353553468455000, 4.284687923895029700, -0.04246903778245769000 ) ) ;
#190 =( LENGTH_UNIT ( ) NAMED_UNIT ( * ) SI_UNIT ( .MILLI., .METRE. ) );
#191 = CARTESIAN_POINT ( 'NONE',  ( 4.996003610813200500E-016, 2.442490654175340100E-015, 0.1243873166290380100 ) ) ;
#192 = ADVANCED_FACE ( 'NONE', ( #3 ), #99, .T. ) ;
#193 = CARTESIAN_POINT ( 'NONE',  ( -1.780603663280862400E-013, -12.69999999999849600, 0.1243873166290211800 ) ) ;
#194 = PERSON_AND_ORGANIZATION ( #93, #162 ) ;
#195 = DIRECTION ( 'NONE',  ( 0.0000000000000000000, 0.0000000000000000000, 1.000000000000000000 ) ) ;
#196 = APPLICATION_PROTOCOL_DEFINITION ( 'international standard', 'config_control_design', 1994, #105 ) ;
#197 = CARTESIAN_POINT ( 'NONE',  ( -12.69999999999999900, 3.997792089092478900E-015, 3.000000000000000000 ) ) ;
#198 = DIRECTION ( 'NONE',  ( 1.000000000000000000, 0.0000000000000000000, -0.0000000000000000000 ) ) ;
#199 = COORDINATED_UNIVERSAL_TIME_OFFSET ( 2, 0, .AHEAD. ) ;
#200 = LINE ( 'NONE', #173, #147 ) ;
#201 = CC_DESIGN_APPROVAL ( #183, ( #112 ) ) ;
#202 = EDGE_LOOP ( 'NONE', ( #95, #23, #125, #34, #14 ) ) ;
#203 = EDGE_CURVE ( 'NONE', #163, #164, #43, .T. ) ;
#204 =( GEOMETRIC_REPRESENTATION_CONTEXT ( 3 ) GLOBAL_UNCERTAINTY_ASSIGNED_CONTEXT ( ( #21 ) ) GLOBAL_UNIT_ASSIGNED_CONTEXT ( ( #190, #170, #53 ) ) REPRESENTATION_CONTEXT ( 'NONE', 'WORKASPACE' ) );
#205 = EDGE_LOOP ( 'NONE', ( #75, #115, #61 ) ) ;
#206 = CARTESIAN_POINT ( 'NONE',  ( 12.77368004236834200, 12.85238015595882600, 0.2532500872184181300 ) ) ;
#207 = SECURITY_CLASSIFICATION ( '', '', #155 ) ;
#208 = CARTESIAN_POINT ( 'NONE',  ( 4.996003610813200500E-016, 2.442490654175340100E-015, 0.1243873166290380100 ) ) ;
#209 = ADVANCED_FACE ( 'NONE', ( #58 ), #6, .T. ) ;
#210 = LINE ( 'NONE', #29, #39 ) ;
#211 = CARTESIAN_POINT ( 'NONE',  ( -1.781208270155889400E-013, -4.284687923894984400, -0.04246903778245704500 ) ) ;
#212 = DIRECTION ( 'NONE',  ( 1.000000000000000000, 1.299127091309579900E-031, -3.623517229293419800E-016 ) ) ;
#213 = DIRECTION ( 'NONE',  ( 1.000000000000000000, 0.0000000000000000000, 0.0000000000000000000 ) ) ;
#214 = CARTESIAN_POINT ( 'NONE',  ( -8.518500367596820100, 4.284687923895029700, -0.0005034667972130170000 ) ) ;
#215 = DATE_TIME_ROLE ( 'creation_date' ) ;
#216 = DIRECTION ( 'NONE',  ( 0.0000000000000000000, 0.0000000000000000000, 1.000000000000000000 ) ) ;
#217 = EDGE_CURVE ( 'NONE', #184, #163, #182, .T. ) ;
#218 = CALENDAR_DATE ( 2018, 21, 12 ) ;
#219 = DIRECTION ( 'NONE',  ( 0.0000000000000000000, 0.0000000000000000000, 1.000000000000000000 ) ) ;
#220 = ORIENTED_EDGE ( 'NONE', *, *, #72, .F. ) ;
#221 = CC_DESIGN_PERSON_AND_ORGANIZATION_ASSIGNMENT ( #10, #103, ( #112 ) ) ;
#222 = FACE_OUTER_BOUND ( 'NONE', #205, .T. ) ;
#223 = CLOSED_SHELL ( 'NONE', ( #66, #209, #138, #192, #118 ) ) ;
#224 = DATE_AND_TIME ( #218, #38 ) ;
#225 = PERSON_AND_ORGANIZATION ( #93, #162 ) ;
#226 = AXIS2_PLACEMENT_3D ( 'NONE', #191, #137, #82 ) ;
#227 = ORIENTED_EDGE ( 'NONE', *, *, #161, .F. ) ;
#228 = PERSON_AND_ORGANIZATION ( #93, #162 ) ;
#229 = DIRECTION ( 'NONE',  ( -0.0000000000000000000, -0.0000000000000000000, -1.000000000000000000 ) ) ;
#230 = PERSON_AND_ORGANIZATION_ROLE ( 'creator' ) ;
#231 = CARTESIAN_POINT ( 'NONE',  ( 12.77368004236834200, -12.85238015595877800, 0.2532500872184181300 ) ) ;
#232 = APPROVAL_ROLE ( '' ) ;
#233 = CARTESIAN_POINT ( 'NONE',  ( -12.69999999999999900, 3.997792089092478900E-015, 0.1243873166290380100 ) ) ;
#234 = APPROVAL_STATUS ( 'not_yet_approved' ) ;
#235 = DIRECTION ( 'NONE',  ( 1.000000000000000000, 0.0000000000000000000, 0.0000000000000000000 ) ) ;
ENDSEC;
END-ISO-10303-21;
