ISO-10303-21;
HEADER;
FILE_DESCRIPTION (( 'STEP AP203' ),
    '1' );
FILE_NAME ('110-0263E BK7 pl-cx 25.4 F1200.STEP',
    '2018-12-21T06:46:16',
    ( '' ),
    ( '' ),
    'SwSTEP 2.0',
    'SolidWorks 2017',
    '' );
FILE_SCHEMA (( 'CONFIG_CONTROL_DESIGN' ));
ENDSEC;

DATA;
#1 = SECURITY_CLASSIFICATION_LEVEL ( 'unclassified' ) ;
#2 = PERSON_AND_ORGANIZATION_ROLE ( 'creator' ) ;
#3 = FACE_OUTER_BOUND ( 'NONE', #24, .T. ) ;
#4 = AXIS2_PLACEMENT_3D ( 'NONE', #104, #5, #199 ) ;
#5 = DIRECTION ( 'NONE',  ( 0.0000000000000000000, 0.0000000000000000000, 1.000000000000000000 ) ) ;
#6 = CARTESIAN_POINT ( 'NONE',  ( 4.996003610813200500E-016, 2.442490654175340100E-015, 0.1295636841351390000 ) ) ;
#7 = FACE_OUTER_BOUND ( 'NONE', #208, .T. ) ;
#8 = AXIS2_PLACEMENT_3D ( 'NONE', #183, #215, #107 ) ;
#9 = LOCAL_TIME ( 8, 46, 16.00000000000000000, #44 ) ;
#10 = APPROVAL_PERSON_ORGANIZATION ( #102, #57, #99 ) ;
#11 = ORIENTED_EDGE ( 'NONE', *, *, #106, .F. ) ;
#12 = DIRECTION ( 'NONE',  ( 1.000000000000000000, 0.0000000000000000000, 0.0000000000000000000 ) ) ;
#13 = CC_DESIGN_PERSON_AND_ORGANIZATION_ASSIGNMENT ( #122, #2, ( #120 ) ) ;
#14 = CARTESIAN_POINT ( 'NONE',  ( -4.259406250975953200, -4.284735044530536100, -0.04423687253375589700 ) ) ;
#15 =( LENGTH_UNIT ( ) NAMED_UNIT ( * ) SI_UNIT ( .MILLI., .METRE. ) );
#16 = ORIENTED_EDGE ( 'NONE', *, *, #148, .T. ) ;
#17 = CC_DESIGN_PERSON_AND_ORGANIZATION_ASSIGNMENT ( #226, #62, ( #184 ) ) ;
#18 = APPROVAL_STATUS ( 'not_yet_approved' ) ;
#19 = DATE_AND_TIME ( #27, #9 ) ;
#20 = EDGE_LOOP ( 'NONE', ( #100, #223, #109 ) ) ;
#21 = CC_DESIGN_DATE_AND_TIME_ASSIGNMENT ( #83, #22, ( #80 ) ) ;
#22 = DATE_TIME_ROLE ( 'classification_date' ) ;
#23 = PRODUCT_DEFINITION_SHAPE ( 'NONE', 'NONE',  #120 ) ;
#24 = EDGE_LOOP ( 'NONE', ( #63, #11, #66, #56, #206 ) ) ;
#25 = APPROVAL ( #157, 'UNSPECIFIED' ) ;
#26 = CC_DESIGN_DATE_AND_TIME_ASSIGNMENT ( #65, #137, ( #120 ) ) ;
#27 = CALENDAR_DATE ( 2018, 21, 12 ) ;
#28 = CYLINDRICAL_SURFACE ( 'NONE', #4, 12.69999999999999900 ) ;
#29 = CARTESIAN_POINT ( 'NONE',  ( -12.69999999999999900, 3.997792089092478900E-015, 0.1295636841351390000 ) ) ;
#30 = ADVANCED_BREP_SHAPE_REPRESENTATION ( '110-0263E BK7 pl-cx 25.4 F1200', ( #156, #197 ), #178 ) ;
#31 = EDGE_CURVE ( 'NONE', #133, #172, #227, .T. ) ;
#32 = CARTESIAN_POINT ( 'NONE',  ( -12.69999999999999900, 3.997792089092478900E-015, 0.1295636841351390000 ) ) ;
#33 = PERSON_AND_ORGANIZATION ( #111, #201 ) ;
#34 = DIRECTION ( 'NONE',  ( 1.000000000000000000, 0.0000000000000000000, 0.0000000000000000000 ) ) ;
#35 = CARTESIAN_POINT ( 'NONE',  ( 4.258195717053223600, -12.85237847004763600, 0.1326917585865463900 ) ) ;
#36 = CARTESIAN_POINT ( 'NONE',  ( -8.516167192200136100, 12.85237847004788000, 0.1763916620374401400 ) ) ;
#37 = ORIENTED_EDGE ( 'NONE', *, *, #148, .F. ) ;
#38 = EDGE_CURVE ( 'NONE', #133, #103, #82, .T. ) ;
#39 = CARTESIAN_POINT ( 'NONE',  ( 4.298882475386579000E-013, -4.284735044530533400, -0.04423687253373093100 ) ) ;
#40 = APPROVAL_DATE_TIME ( #158, #25 ) ;
#41 = DIRECTION ( 'NONE',  ( 1.000000000000000000, 0.0000000000000000000, 0.0000000000000000000 ) ) ;
#42 = EDGE_CURVE ( 'NONE', #172, #232, #142, .T. ) ;
#43 = PRODUCT_DEFINITION_FORMATION_WITH_SPECIFIED_SOURCE ( 'ANY', '', #184, .NOT_KNOWN. ) ;
#44 = COORDINATED_UNIVERSAL_TIME_OFFSET ( 2, 0, .AHEAD. ) ;
#45 = DATE_AND_TIME ( #138, #147 ) ;
#46 = ORIENTED_EDGE ( 'NONE', *, *, #175, .T. ) ;
#47 = AXIS2_PLACEMENT_3D ( 'NONE', #187, #202, #54 ) ;
#48 = APPROVAL_DATE_TIME ( #45, #57 ) ;
#49 = VECTOR ( 'NONE', #86, 1000.000000000000000 ) ;
#50 = PLANE ( 'NONE',  #220 ) ;
#51 = PRODUCT_RELATED_PRODUCT_CATEGORY ( 'detail', '', ( #184 ) ) ;
#52 = CC_DESIGN_APPROVAL ( #25, ( #120 ) ) ;
#53 = DIRECTION ( 'NONE',  ( 0.0000000000000000000, 0.0000000000000000000, 1.000000000000000000 ) ) ;
#54 = DIRECTION ( 'NONE',  ( 3.734435468315772600E-016, -1.000000000000000000, -7.133963210442773900E-016 ) ) ;
#55 = PERSON_AND_ORGANIZATION ( #111, #201 ) ;
#56 = ORIENTED_EDGE ( 'NONE', *, *, #113, .T. ) ;
#57 = APPROVAL ( #194, 'UNSPECIFIED' ) ;
#58 = CARTESIAN_POINT ( 'NONE',  ( 2.792904796322658400E-013, -4.284735044530534300, -0.04423687253375555000 ) ) ;
#59 = CARTESIAN_POINT ( 'NONE',  ( 4.234893169747229900E-013, 12.69999999999869900, 0.1295636841351655900 ) ) ;
#60 = VECTOR ( 'NONE', #126, 1000.000000000000000 ) ;
#61 =( NAMED_UNIT ( * ) PLANE_ANGLE_UNIT ( ) SI_UNIT ( $, .RADIAN. ) );
#62 = PERSON_AND_ORGANIZATION_ROLE ( 'design_owner' ) ;
#63 = ORIENTED_EDGE ( 'NONE', *, *, #38, .F. ) ;
#64 = CYLINDRICAL_SURFACE ( 'NONE', #140, 12.69999999999999900 ) ;
#65 = DATE_AND_TIME ( #141, #171 ) ;
#66 = ORIENTED_EDGE ( 'NONE', *, *, #75, .F. ) ;
#67 = AXIS2_PLACEMENT_3D ( 'NONE', #169, #200, #228 ) ;
#68 = ADVANCED_FACE ( 'NONE', ( #190 ), #28, .T. ) ;
#69 = CARTESIAN_POINT ( 'NONE',  ( 4.996003610813200500E-016, 2.442490654175340100E-015, 0.1295636841351390000 ) ) ;
#70 = APPROVAL_PERSON_ORGANIZATION ( #179, #25, #116 ) ;
#71 = CLOSED_SHELL ( 'NONE', ( #198, #68, #210, #121, #164 ) ) ;
#72 = CARTESIAN_POINT ( 'NONE',  ( 4.996003610813200500E-016, 2.442490654175340100E-015, 3.000000000000000000 ) ) ;
#73 = CARTESIAN_POINT ( 'NONE',  ( -4.258195717052852400, 12.85237847004788100, 0.1326917585865200800 ) ) ;
#74 = FACE_OUTER_BOUND ( 'NONE', #20, .T. ) ;
#75 = EDGE_CURVE ( 'NONE', #232, #118, #181, .T. ) ;
#76 = CARTESIAN_POINT ( 'NONE',  ( -12.77709724828251200, -4.284735044530538800, 0.08689550338565560400 ) ) ;
#77 =( BOUNDED_SURFACE ( )  B_SPLINE_SURFACE ( 3, 3, ( 
 ( #174, #153, #129, #135 ),
 ( #76, #93, #14, #58 ),
 ( #191, #217, #219, #114 ),
 ( #108, #36, #73, #155 ) ),
 .UNSPECIFIED., .F., .F., .T. ) 
 B_SPLINE_SURFACE_WITH_KNOTS ( ( 4, 4 ),
 ( 4, 4 ),
 ( 0.0000000000000000000, 1.000000000000000000 ),
 ( 0.0000000000000000000, 1.000000000000000000 ),
 .UNSPECIFIED. ) 
 GEOMETRIC_REPRESENTATION_ITEM ( )  RATIONAL_B_SPLINE_SURFACE ( (
 ( 1.000000000000000000, 0.9999648925005270000, 0.9999648925005270000, 1.000000000000000000),
 ( 0.9998578936989703800, 0.9998227911884942600, 0.9998227911884942600, 0.9998578936989703800),
 ( 0.9998578936989703800, 0.9998227911884942600, 0.9998227911884942600, 0.9998578936989703800),
 ( 1.000000000000000000, 0.9999648925005270000, 0.9999648925005270000, 1.000000000000000000) ) ) 
 REPRESENTATION_ITEM ( '' )  SURFACE ( )  );
#78 = CARTESIAN_POINT ( 'NONE',  ( 0.0000000000000000000, 0.0000000000000000000, 0.0000000000000000000 ) ) ;
#79 = APPLICATION_PROTOCOL_DEFINITION ( 'international standard', 'config_control_design', 1994, #161 ) ;
#80 = SECURITY_CLASSIFICATION ( '', '', #1 ) ;
#81 = APPLICATION_PROTOCOL_DEFINITION ( 'international standard', 'config_control_design', 1994, #119 ) ;
#82 = LINE ( 'NONE', #32, #60 ) ;
#83 = DATE_AND_TIME ( #94, #84 ) ;
#84 = LOCAL_TIME ( 8, 46, 16.00000000000000000, #136 ) ;
#85 = VERTEX_POINT ( 'NONE', #170 ) ;
#86 = DIRECTION ( 'NONE',  ( 0.0000000000000000000, 0.0000000000000000000, 1.000000000000000000 ) ) ;
#87 = CARTESIAN_POINT ( 'NONE',  ( 12.69999999999999900, 2.442490654175340100E-015, 0.1295636841351390000 ) ) ;
#88 = CC_DESIGN_PERSON_AND_ORGANIZATION_ASSIGNMENT ( #185, #115, ( #80 ) ) ;
#89 = CARTESIAN_POINT ( 'NONE',  ( 8.516167192200175200, -12.85237847004763400, 0.1763916620374523000 ) ) ;
#90 = AXIS2_PLACEMENT_3D ( 'NONE', #69, #127, #146 ) ;
#91 = ORIENTED_EDGE ( 'NONE', *, *, #42, .F. ) ;
#92 = CARTESIAN_POINT ( 'NONE',  ( 4.330306782932540200E-013, -12.85237847004763800, 0.1326917585865450300 ) ) ;
#93 = CARTESIAN_POINT ( 'NONE',  ( -8.518588196298114900, -4.284735044530537000, -0.0005245459301488355200 ) ) ;
#94 = CALENDAR_DATE ( 2018, 21, 12 ) ;
#95 = PERSON_AND_ORGANIZATION_ROLE ( 'design_supplier' ) ;
#96 = DIRECTION ( 'NONE',  ( 0.0000000000000000000, 0.0000000000000000000, 1.000000000000000000 ) ) ;
#97 = PERSON_AND_ORGANIZATION_ROLE ( 'creator' ) ;
#98 = CALENDAR_DATE ( 2018, 21, 12 ) ;
#99 = APPROVAL_ROLE ( '' ) ;
#100 = ORIENTED_EDGE ( 'NONE', *, *, #175, .F. ) ;
#101 = EDGE_CURVE ( 'NONE', #85, #103, #213, .T. ) ;
#102 = PERSON_AND_ORGANIZATION ( #111, #201 ) ;
#103 = VERTEX_POINT ( 'NONE', #230 ) ;
#104 = CARTESIAN_POINT ( 'NONE',  ( 4.996003610813200500E-016, 2.442490654175340100E-015, 0.1295636841351390000 ) ) ;
#105 = ORIENTED_EDGE ( 'NONE', *, *, #113, .F. ) ;
#106 = EDGE_CURVE ( 'NONE', #118, #133, #218, .T. ) ;
#107 = DIRECTION ( 'NONE',  ( 1.000000000000000000, 0.0000000000000000000, 0.0000000000000000000 ) ) ;
#108 = CARTESIAN_POINT ( 'NONE',  ( -12.77346596524762200, 12.85237847004788100, 0.2637868663563081000 ) ) ;
#109 = ORIENTED_EDGE ( 'NONE', *, *, #31, .T. ) ;
#110 = CARTESIAN_POINT ( 'NONE',  ( 8.516167192200166300, 12.85237847004788700, 0.1763916620374522700 ) ) ;
#111 = PERSON ( 'UNSPECIFIED', 'UNSPECIFIED', 'UNSPECIFIED', ('UNSPECIFIED'), ('UNSPECIFIED'), ('UNSPECIFIED') ) ;
#112 = CARTESIAN_POINT ( 'NONE',  ( 4.266880342341317600E-013, 4.284735044530783000, -0.04423687253372497000 ) ) ;
#113 = EDGE_CURVE ( 'NONE', #232, #85, #151, .T. ) ;
#114 = CARTESIAN_POINT ( 'NONE',  ( 2.758210326803123800E-013, 4.284735044530782100, -0.04423687253374958300 ) ) ;
#115 = PERSON_AND_ORGANIZATION_ROLE ( 'classification_officer' ) ;
#116 = APPROVAL_ROLE ( '' ) ;
#117 = COORDINATED_UNIVERSAL_TIME_OFFSET ( 2, 0, .AHEAD. ) ;
#118 = VERTEX_POINT ( 'NONE', #166 ) ;
#119 = APPLICATION_CONTEXT ( 'configuration controlled 3d designs of mechanical parts and assemblies' ) ;
#120 = PRODUCT_DEFINITION ( 'UNKNOWN', '', #43, #130 ) ;
#121 = ADVANCED_FACE ( 'NONE', ( #3 ), #64, .T. ) ;
#122 = PERSON_AND_ORGANIZATION ( #111, #201 ) ;
#123 = DIRECTION ( 'NONE',  ( -0.0000000000000000000, -0.0000000000000000000, -1.000000000000000000 ) ) ;
#124 = CIRCLE ( 'NONE', #47, 622.4999999999998900 ) ;
#125 = AXIS2_PLACEMENT_3D ( 'NONE', #229, #149, #34 ) ;
#126 = DIRECTION ( 'NONE',  ( 0.0000000000000000000, 0.0000000000000000000, 1.000000000000000000 ) ) ;
#127 = DIRECTION ( 'NONE',  ( -0.0000000000000000000, -0.0000000000000000000, -1.000000000000000000 ) ) ;
#128 = CARTESIAN_POINT ( 'NONE',  ( 12.69999999999999900, 2.442490654175340100E-015, 0.1295636841351390000 ) ) ;
#129 = CARTESIAN_POINT ( 'NONE',  ( -4.258195717052841700, -12.85237847004764000, 0.1326917585865200800 ) ) ;
#130 = DESIGN_CONTEXT ( 'detailed design', #161, 'design' ) ;
#131 = CC_DESIGN_APPROVAL ( #57, ( #43 ) ) ;
#132 = CARTESIAN_POINT ( 'NONE',  ( 12.77346596524731800, 12.85237847004789200, 0.2637868663563083200 ) ) ;
#133 = VERTEX_POINT ( 'NONE', #29 ) ;
#134 = CARTESIAN_POINT ( 'NONE',  ( 4.259406250976325300, 4.284735044530784800, -0.04423687253372359700 ) ) ;
#135 = CARTESIAN_POINT ( 'NONE',  ( 2.810252031082427500E-013, -12.85237847004763800, 0.1326917585865204100 ) ) ;
#136 = COORDINATED_UNIVERSAL_TIME_OFFSET ( 2, 0, .AHEAD. ) ;
#137 = DATE_TIME_ROLE ( 'creation_date' ) ;
#138 = CALENDAR_DATE ( 2018, 21, 12 ) ;
#139 = EDGE_LOOP ( 'NONE', ( #216, #165, #16, #105, #91 ) ) ;
#140 = AXIS2_PLACEMENT_3D ( 'NONE', #6, #53, #145 ) ;
#141 = CALENDAR_DATE ( 2018, 21, 12 ) ;
#142 = CIRCLE ( 'NONE', #90, 12.69999999999999900 ) ;
#143 = CC_DESIGN_PERSON_AND_ORGANIZATION_ASSIGNMENT ( #55, #97, ( #43 ) ) ;
#144 = DIRECTION ( 'NONE',  ( 1.000000000000000000, 0.0000000000000000000, 0.0000000000000000000 ) ) ;
#145 = DIRECTION ( 'NONE',  ( 1.000000000000000000, 0.0000000000000000000, 0.0000000000000000000 ) ) ;
#146 = DIRECTION ( 'NONE',  ( 1.000000000000000000, 1.776356839400250500E-015, 0.0000000000000000000 ) ) ;
#147 = LOCAL_TIME ( 8, 46, 16.00000000000000000, #224 ) ;
#148 = EDGE_CURVE ( 'NONE', #103, #85, #177, .T. ) ;
#149 = DIRECTION ( 'NONE',  ( -0.0000000000000000000, -0.0000000000000000000, -1.000000000000000000 ) ) ;
#150 = COORDINATED_UNIVERSAL_TIME_OFFSET ( 2, 0, .AHEAD. ) ;
#151 = LINE ( 'NONE', #87, #49 ) ;
#152 = CARTESIAN_POINT ( 'NONE',  ( 4.258195717053213900, 12.85237847004788500, 0.1326917585865463900 ) ) ;
#153 = CARTESIAN_POINT ( 'NONE',  ( -8.516167192200127200, -12.85237847004764200, 0.1763916620374401400 ) ) ;
#154 = CARTESIAN_POINT ( 'NONE',  ( 12.77709724828221900, 4.284735044530787500, 0.08689550338566177900 ) ) ;
#155 = CARTESIAN_POINT ( 'NONE',  ( 2.706168622523819100E-013, 12.85237847004788700, 0.1326917585865204100 ) ) ;
#156 = MANIFOLD_SOLID_BREP ( 'Imported1', #71 ) ;
#157 = APPROVAL_STATUS ( 'not_yet_approved' ) ;
#158 = DATE_AND_TIME ( #98, #207 ) ;
#159 = APPROVAL_ROLE ( '' ) ;
#160 = ORIENTED_EDGE ( 'NONE', *, *, #42, .T. ) ;
#161 = APPLICATION_CONTEXT ( 'configuration controlled 3d designs of mechanical parts and assemblies' ) ;
#162 = CC_DESIGN_PERSON_AND_ORGANIZATION_ASSIGNMENT ( #189, #95, ( #43 ) ) ;
#163 = FACE_OUTER_BOUND ( 'NONE', #209, .T. ) ;
#164 = ADVANCED_FACE ( 'NONE', ( #163 ), #50, .T. ) ;
#165 = ORIENTED_EDGE ( 'NONE', *, *, #38, .T. ) ;
#166 = CARTESIAN_POINT ( 'NONE',  ( 4.329747830642439200E-013, -12.69999999999835300, 0.1295636841351655900 ) ) ;
#167 = ORIENTED_EDGE ( 'NONE', *, *, #75, .T. ) ;
#168 = UNCERTAINTY_MEASURE_WITH_UNIT (LENGTH_MEASURE( 1.000000000000000100E-005 ), #15, 'distance_accuracy_value', 'NONE');
#169 = CARTESIAN_POINT ( 'NONE',  ( 4.996003610813200500E-016, 2.442490654175340100E-015, 0.1295636841351390000 ) ) ;
#170 = CARTESIAN_POINT ( 'NONE',  ( 12.69999999999999900, 2.442490654175340100E-015, 3.000000000000000000 ) ) ;
#171 = LOCAL_TIME ( 8, 46, 16.00000000000000000, #117 ) ;
#172 = VERTEX_POINT ( 'NONE', #59 ) ;
#173 = DIRECTION ( 'NONE',  ( 0.0000000000000000000, 0.0000000000000000000, 1.000000000000000000 ) ) ;
#174 = CARTESIAN_POINT ( 'NONE',  ( -12.77346596524761100, -12.85237847004764300, 0.2637868663563081000 ) ) ;
#175 = EDGE_CURVE ( 'NONE', #118, #172, #124, .T. ) ;
#176 = DIRECTION ( 'NONE',  ( 1.000000000000000000, 0.0000000000000000000, -0.0000000000000000000 ) ) ;
#177 = CIRCLE ( 'NONE', #234, 12.69999999999999900 ) ;
#178 =( GEOMETRIC_REPRESENTATION_CONTEXT ( 3 ) GLOBAL_UNCERTAINTY_ASSIGNED_CONTEXT ( ( #168 ) ) GLOBAL_UNIT_ASSIGNED_CONTEXT ( ( #15, #61, #193 ) ) REPRESENTATION_CONTEXT ( 'NONE', 'WORKASPACE' ) );
#179 = PERSON_AND_ORGANIZATION ( #111, #201 ) ;
#180 = CC_DESIGN_APPROVAL ( #195, ( #80 ) ) ;
#181 = CIRCLE ( 'NONE', #8, 12.69999999999999900 ) ;
#182 = SHAPE_DEFINITION_REPRESENTATION ( #23, #30 ) ;
#183 = CARTESIAN_POINT ( 'NONE',  ( 4.996003610813200500E-016, 2.442490654175340100E-015, 0.1295636841351390000 ) ) ;
#184 = PRODUCT ( '110-0263E BK7 pl-cx 25.4 F1200', '110-0263E BK7 pl-cx 25.4 F1200', '', ( #221 ) ) ;
#185 = PERSON_AND_ORGANIZATION ( #111, #201 ) ;
#186 = AXIS2_PLACEMENT_3D ( 'NONE', #212, #123, #144 ) ;
#187 = CARTESIAN_POINT ( 'NONE',  ( 2.273736754432320100E-013, 3.410605131648479900E-013, 622.5000000000000000 ) ) ;
#188 = CARTESIAN_POINT ( 'NONE',  ( 4.234314026911011000E-013, 12.85237847004788700, 0.1326917585865450300 ) ) ;
#189 = PERSON_AND_ORGANIZATION ( #111, #201 ) ;
#190 = FACE_OUTER_BOUND ( 'NONE', #139, .T. ) ;
#191 = CARTESIAN_POINT ( 'NONE',  ( -12.77709724828251600, 4.284735044530777700, 0.08689550338566155700 ) ) ;
#192 = CARTESIAN_POINT ( 'NONE',  ( 8.518588196298159300, -4.284735044530530800, -0.0005245459301366656700 ) ) ;
#193 =( NAMED_UNIT ( * ) SI_UNIT ( $, .STERADIAN. ) SOLID_ANGLE_UNIT ( ) );
#194 = APPROVAL_STATUS ( 'not_yet_approved' ) ;
#195 = APPROVAL ( #18, 'UNSPECIFIED' ) ;
#196 = ORIENTED_EDGE ( 'NONE', *, *, #101, .F. ) ;
#197 = AXIS2_PLACEMENT_3D ( 'NONE', #78, #96, #41 ) ;
#198 = ADVANCED_FACE ( 'NONE', ( #7 ), #211, .T. ) ;
#199 = DIRECTION ( 'NONE',  ( 1.000000000000000000, 0.0000000000000000000, 0.0000000000000000000 ) ) ;
#200 = DIRECTION ( 'NONE',  ( -0.0000000000000000000, -0.0000000000000000000, -1.000000000000000000 ) ) ;
#201 = ORGANIZATION ( 'UNSPECIFIED', 'UNSPECIFIED', '' ) ;
#202 = DIRECTION ( 'NONE',  ( 1.000000000000000000, 3.734435468315770200E-016, 3.227312270249160100E-016 ) ) ;
#203 = DIRECTION ( 'NONE',  ( -0.0000000000000000000, -0.0000000000000000000, -1.000000000000000000 ) ) ;
#204 = CARTESIAN_POINT ( 'NONE',  ( 12.77709724828222300, -4.284735044530529000, 0.08689550338565582600 ) ) ;
#205 = CARTESIAN_POINT ( 'NONE',  ( 0.0000000000000000000, 26.11199999999999800, 3.000000000000000000 ) ) ;
#206 = ORIENTED_EDGE ( 'NONE', *, *, #101, .T. ) ;
#207 = LOCAL_TIME ( 8, 46, 16.00000000000000000, #150 ) ;
#208 = EDGE_LOOP ( 'NONE', ( #167, #46, #160 ) ) ;
#209 = EDGE_LOOP ( 'NONE', ( #196, #37 ) ) ;
#210 = ADVANCED_FACE ( 'NONE', ( #74 ), #77, .T. ) ;
#211 =( BOUNDED_SURFACE ( )  B_SPLINE_SURFACE ( 3, 3, ( 
 ( #92, #35, #89, #233 ),
 ( #39, #231, #192, #204 ),
 ( #112, #134, #235, #154 ),
 ( #188, #152, #110, #132 ) ),
 .UNSPECIFIED., .F., .F., .F. ) 
 B_SPLINE_SURFACE_WITH_KNOTS ( ( 4, 4 ),
 ( 4, 4 ),
 ( 0.0000000000000000000, 1.000000000000000000 ),
 ( 0.0000000000000000000, 1.000000000000000000 ),
 .UNSPECIFIED. ) 
 GEOMETRIC_REPRESENTATION_ITEM ( )  RATIONAL_B_SPLINE_SURFACE ( (
 ( 1.000000000000000000, 0.9999648925005270000, 0.9999648925005270000, 1.000000000000000000),
 ( 0.9998578936989703800, 0.9998227911884942600, 0.9998227911884942600, 0.9998578936989703800),
 ( 0.9998578936989703800, 0.9998227911884942600, 0.9998227911884942600, 0.9998578936989703800),
 ( 1.000000000000000000, 0.9999648925005270000, 0.9999648925005270000, 1.000000000000000000) ) ) 
 REPRESENTATION_ITEM ( '' )  SURFACE ( )  );
#212 = CARTESIAN_POINT ( 'NONE',  ( 4.996003610813200500E-016, 2.442490654175340100E-015, 0.1295636841351390000 ) ) ;
#213 = CIRCLE ( 'NONE', #125, 12.69999999999999900 ) ;
#214 = CC_DESIGN_SECURITY_CLASSIFICATION ( #80, ( #43 ) ) ;
#215 = DIRECTION ( 'NONE',  ( -0.0000000000000000000, -0.0000000000000000000, -1.000000000000000000 ) ) ;
#216 = ORIENTED_EDGE ( 'NONE', *, *, #31, .F. ) ;
#217 = CARTESIAN_POINT ( 'NONE',  ( -8.518588196298118500, 4.284735044530779500, -0.0005245459301428725100 ) ) ;
#218 = CIRCLE ( 'NONE', #186, 12.69999999999999900 ) ;
#219 = CARTESIAN_POINT ( 'NONE',  ( -4.259406250975956700, 4.284735044530780400, -0.04423687253374992300 ) ) ;
#220 = AXIS2_PLACEMENT_3D ( 'NONE', #205, #173, #176 ) ;
#221 = MECHANICAL_CONTEXT ( 'NONE', #119, 'mechanical' ) ;
#222 = APPROVAL_PERSON_ORGANIZATION ( #33, #195, #159 ) ;
#223 = ORIENTED_EDGE ( 'NONE', *, *, #106, .T. ) ;
#224 = COORDINATED_UNIVERSAL_TIME_OFFSET ( 2, 0, .AHEAD. ) ;
#225 = APPROVAL_DATE_TIME ( #19, #195 ) ;
#226 = PERSON_AND_ORGANIZATION ( #111, #201 ) ;
#227 = CIRCLE ( 'NONE', #67, 12.69999999999999900 ) ;
#228 = DIRECTION ( 'NONE',  ( 1.000000000000000000, -8.881784197001252300E-016, 0.0000000000000000000 ) ) ;
#229 = CARTESIAN_POINT ( 'NONE',  ( 4.996003610813200500E-016, 2.442490654175340100E-015, 3.000000000000000000 ) ) ;
#230 = CARTESIAN_POINT ( 'NONE',  ( -12.69999999999999900, 3.997792089092478900E-015, 3.000000000000000000 ) ) ;
#231 = CARTESIAN_POINT ( 'NONE',  ( 4.259406250976328900, -4.284735044530531700, -0.04423687253372956400 ) ) ;
#232 = VERTEX_POINT ( 'NONE', #128 ) ;
#233 = CARTESIAN_POINT ( 'NONE',  ( 12.77346596524732700, -12.85237847004763300, 0.2637868663563083200 ) ) ;
#234 = AXIS2_PLACEMENT_3D ( 'NONE', #72, #203, #12 ) ;
#235 = CARTESIAN_POINT ( 'NONE',  ( 8.518588196298155800, 4.284735044530785700, -0.0005245459301307160100 ) ) ;
ENDSEC;
END-ISO-10303-21;
