ISO-10303-21;
HEADER;
FILE_DESCRIPTION (( 'STEP AP203' ),
    '1' );
FILE_NAME ('110-0259E BK7 pl-cx 25.4 F1000.STEP',
    '2018-12-21T06:46:32',
    ( '' ),
    ( '' ),
    'SwSTEP 2.0',
    'SolidWorks 2017',
    '' );
FILE_SCHEMA (( 'CONFIG_CONTROL_DESIGN' ));
ENDSEC;

DATA;
#1 = PERSON_AND_ORGANIZATION ( #70, #144 ) ;
#2 = AXIS2_PLACEMENT_3D ( 'NONE', #69, #100, #225 ) ;
#3 = EDGE_CURVE ( 'NONE', #53, #59, #26, .T. ) ;
#4 = ORIENTED_EDGE ( 'NONE', *, *, #91, .T. ) ;
#5 = CC_DESIGN_PERSON_AND_ORGANIZATION_ASSIGNMENT ( #1, #92, ( #196 ) ) ;
#6 = SHAPE_DEFINITION_REPRESENTATION ( #150, #146 ) ;
#7 = CARTESIAN_POINT ( 'NONE',  ( 9.757406683744815600E-014, 12.69999999999961700, 0.1554985346001948000 ) ) ;
#8 = COORDINATED_UNIVERSAL_TIME_OFFSET ( 2, 0, .AHEAD. ) ;
#9 = EDGE_LOOP ( 'NONE', ( #89, #224, #116, #149, #22 ) ) ;
#10 = CC_DESIGN_APPROVAL ( #192, ( #180 ) ) ;
#11 =( BOUNDED_SURFACE ( )  B_SPLINE_SURFACE ( 3, 3, ( 
 ( #54, #35, #207, #230 ),
 ( #185, #55, #187, #205 ),
 ( #40, #229, #172, #83 ),
 ( #171, #188, #189, #90 ) ),
 .UNSPECIFIED., .F., .F., .F. ) 
 B_SPLINE_SURFACE_WITH_KNOTS ( ( 4, 4 ),
 ( 4, 4 ),
 ( 0.0000000000000000000, 1.000000000000000000 ),
 ( 0.0000000000000000000, 1.000000000000000000 ),
 .UNSPECIFIED. ) 
 GEOMETRIC_REPRESENTATION_ITEM ( )  RATIONAL_B_SPLINE_SURFACE ( (
 ( 1.000000000000000000, 0.9999494325593164500, 0.9999494325593164500, 1.000000000000000000),
 ( 0.9997953181683749700, 0.9997447610779277600, 0.9997447610779277600, 0.9997953181683749700),
 ( 0.9997953181683749700, 0.9997447610779277600, 0.9997447610779277600, 0.9997953181683749700),
 ( 1.000000000000000000, 0.9999494325593164500, 0.9999494325593164500, 1.000000000000000000) ) ) 
 REPRESENTATION_ITEM ( '' )  SURFACE ( )  );
#12 = CARTESIAN_POINT ( 'NONE',  ( 12.69999999999999900, 2.442490654175340100E-015, 3.000000000000000000 ) ) ;
#13 = APPROVAL_DATE_TIME ( #105, #65 ) ;
#14 = CARTESIAN_POINT ( 'NONE',  ( -2.775557561562891400E-014, 4.285000057869082100, -0.05309510063437225500 ) ) ;
#15 = DESIGN_CONTEXT ( 'detailed design', #108, 'design' ) ;
#16 = CARTESIAN_POINT ( 'NONE',  ( -12.69999999999999900, 3.997792089092478900E-015, 0.1554985346002160100 ) ) ;
#17 = AXIS2_PLACEMENT_3D ( 'NONE', #221, #201, #99 ) ;
#18 = CYLINDRICAL_SURFACE ( 'NONE', #233, 12.69999999999999900 ) ;
#19 = APPROVAL_ROLE ( '' ) ;
#20 = CARTESIAN_POINT ( 'NONE',  ( 1.032658951011143500E-013, -12.69999999999961600, 0.1554985346001948000 ) ) ;
#21 = DIRECTION ( 'NONE',  ( 1.000000000000000000, 0.0000000000000000000, 0.0000000000000000000 ) ) ;
#22 = ORIENTED_EDGE ( 'NONE', *, *, #23, .T. ) ;
#23 = EDGE_CURVE ( 'NONE', #131, #79, #140, .T. ) ;
#24 = LOCAL_TIME ( 8, 46, 32.00000000000000000, #66 ) ;
#25 = CC_DESIGN_DATE_AND_TIME_ASSIGNMENT ( #109, #235, ( #180 ) ) ;
#26 = CIRCLE ( 'NONE', #132, 12.69999999999999900 ) ;
#27 = CALENDAR_DATE ( 2018, 21, 12 ) ;
#28 = ORIENTED_EDGE ( 'NONE', *, *, #71, .T. ) ;
#29 = AXIS2_PLACEMENT_3D ( 'NONE', #183, #148, #167 ) ;
#30 = CARTESIAN_POINT ( 'NONE',  ( 12.69999999999999900, 2.442490654175340100E-015, 0.1554985346002160100 ) ) ;
#31 = CIRCLE ( 'NONE', #128, 12.69999999999999900 ) ;
#32 = DIRECTION ( 'NONE',  ( 1.000000000000000000, 8.881784197001252300E-016, 0.0000000000000000000 ) ) ;
#33 = ADVANCED_FACE ( 'NONE', ( #68 ), #18, .T. ) ;
#34 = CC_DESIGN_SECURITY_CLASSIFICATION ( #177, ( #196 ) ) ;
#35 = CARTESIAN_POINT ( 'NONE',  ( 4.257958953184131100, -12.85236898862610000, 0.1592526990957806600 ) ) ;
#36 = DIRECTION ( 'NONE',  ( -0.0000000000000000000, -0.0000000000000000000, -1.000000000000000000 ) ) ;
#37 = CARTESIAN_POINT ( 'NONE',  ( -12.77226205289646000, -12.85236898862610400, 0.3165744032392892000 ) ) ;
#38 = DATE_AND_TIME ( #215, #209 ) ;
#39 = EDGE_LOOP ( 'NONE', ( #166, #155, #4 ) ) ;
#40 = CARTESIAN_POINT ( 'NONE',  ( 9.950016074794935600E-014, 4.285000057869083000, -0.05309510063438225400 ) ) ;
#41 = CARTESIAN_POINT ( 'NONE',  ( -4.257958953184013900, 12.85236898862613800, 0.1592526990957900400 ) ) ;
#42 = APPLICATION_CONTEXT ( 'configuration controlled 3d designs of mechanical parts and assemblies' ) ;
#43 = FACE_OUTER_BOUND ( 'NONE', #126, .T. ) ;
#44 =( LENGTH_UNIT ( ) NAMED_UNIT ( * ) SI_UNIT ( .MILLI., .METRE. ) );
#45 = APPROVAL_ROLE ( '' ) ;
#46 = EDGE_CURVE ( 'NONE', #179, #59, #78, .T. ) ;
#47 = ORIENTED_EDGE ( 'NONE', *, *, #3, .F. ) ;
#48 = MANIFOLD_SOLID_BREP ( 'Imported1', #216 ) ;
#49 = APPROVAL_DATE_TIME ( #73, #214 ) ;
#50 = ORIENTED_EDGE ( 'NONE', *, *, #23, .F. ) ;
#51 = LOCAL_TIME ( 8, 46, 32.00000000000000000, #153 ) ;
#52 =( BOUNDED_SURFACE ( )  B_SPLINE_SURFACE ( 3, 3, ( 
 ( #37, #85, #72, #102 ),
 ( #227, #118, #208, #154 ),
 ( #103, #156, #57, #14 ),
 ( #120, #87, #41, #56 ) ),
 .UNSPECIFIED., .F., .F., .F. ) 
 B_SPLINE_SURFACE_WITH_KNOTS ( ( 4, 4 ),
 ( 4, 4 ),
 ( 0.0000000000000000000, 1.000000000000000000 ),
 ( 0.0000000000000000000, 1.000000000000000000 ),
 .UNSPECIFIED. ) 
 GEOMETRIC_REPRESENTATION_ITEM ( )  RATIONAL_B_SPLINE_SURFACE ( (
 ( 1.000000000000000000, 0.9999494325593164500, 0.9999494325593164500, 1.000000000000000000),
 ( 0.9997953181683749700, 0.9997447610779277600, 0.9997447610779277600, 0.9997953181683749700),
 ( 0.9997953181683749700, 0.9997447610779277600, 0.9997447610779277600, 0.9997953181683749700),
 ( 1.000000000000000000, 0.9999494325593164500, 0.9999494325593164500, 1.000000000000000000) ) ) 
 REPRESENTATION_ITEM ( '' )  SURFACE ( )  );
#53 = VERTEX_POINT ( 'NONE', #67 ) ;
#54 = CARTESIAN_POINT ( 'NONE',  ( 1.032993120996852800E-013, -12.85236898862610000, 0.1592526990957798800 ) ) ;
#55 = CARTESIAN_POINT ( 'NONE',  ( 4.259702631419168400, -4.285000057869045700, -0.05309510063438083200 ) ) ;
#56 = CARTESIAN_POINT ( 'NONE',  ( -2.949029909160572100E-014, 12.85236898862613800, 0.1592526990957898500 ) ) ;
#57 = CARTESIAN_POINT ( 'NONE',  ( -4.259702631419051100, 4.285000057869081200, -0.05309510063437204000 ) ) ;
#58 = PERSON_AND_ORGANIZATION ( #70, #144 ) ;
#59 = VERTEX_POINT ( 'NONE', #7 ) ;
#60 = APPLICATION_PROTOCOL_DEFINITION ( 'international standard', 'config_control_design', 1994, #108 ) ;
#61 = PERSON_AND_ORGANIZATION_ROLE ( 'design_owner' ) ;
#62 = APPROVAL_PERSON_ORGANIZATION ( #112, #214, #19 ) ;
#63 = PERSON_AND_ORGANIZATION ( #70, #144 ) ;
#64 = VERTEX_POINT ( 'NONE', #30 ) ;
#65 = APPROVAL ( #127, 'UNSPECIFIED' ) ;
#66 = COORDINATED_UNIVERSAL_TIME_OFFSET ( 2, 0, .AHEAD. ) ;
#67 = CARTESIAN_POINT ( 'NONE',  ( -12.69999999999999900, 3.997792089092478900E-015, 0.1554985346002160100 ) ) ;
#68 = FACE_OUTER_BOUND ( 'NONE', #130, .T. ) ;
#69 = CARTESIAN_POINT ( 'NONE',  ( 4.996003610813200500E-016, 2.442490654175340100E-015, 0.1554985346002160100 ) ) ;
#70 = PERSON ( 'UNSPECIFIED', 'UNSPECIFIED', 'UNSPECIFIED', ('UNSPECIFIED'), ('UNSPECIFIED'), ('UNSPECIFIED') ) ;
#71 = EDGE_CURVE ( 'NONE', #179, #53, #106, .T. ) ;
#72 = CARTESIAN_POINT ( 'NONE',  ( -4.257958953184006700, -12.85236898862610400, 0.1592526990957901000 ) ) ;
#73 = DATE_AND_TIME ( #200, #190 ) ;
#74 = CARTESIAN_POINT ( 'NONE',  ( 0.0000000000000000000, 0.0000000000000000000, 0.0000000000000000000 ) ) ;
#75 = APPROVAL_ROLE ( '' ) ;
#76 = CARTESIAN_POINT ( 'NONE',  ( 0.0000000000000000000, 26.11199999999999800, 3.000000000000000000 ) ) ;
#77 = DATE_TIME_ROLE ( 'classification_date' ) ;
#78 = CIRCLE ( 'NONE', #17, 518.7000000000000500 ) ;
#79 = VERTEX_POINT ( 'NONE', #151 ) ;
#80 = PERSON_AND_ORGANIZATION ( #70, #144 ) ;
#81 = ORIENTED_EDGE ( 'NONE', *, *, #3, .T. ) ;
#82 = LINE ( 'NONE', #16, #213 ) ;
#83 = CARTESIAN_POINT ( 'NONE',  ( 12.77749242632175900, 4.285000057869085700, 0.1042910283742974600 ) ) ;
#84 = ADVANCED_FACE ( 'NONE', ( #176 ), #162, .T. ) ;
#85 = CARTESIAN_POINT ( 'NONE',  ( -8.515594935237794900, -12.85236898862610400, 0.2116959190630319000 ) ) ;
#86 = PRODUCT_RELATED_PRODUCT_CATEGORY ( 'detail', '', ( #136 ) ) ;
#87 = CARTESIAN_POINT ( 'NONE',  ( -8.515594935237802000, 12.85236898862613800, 0.2116959190630319000 ) ) ;
#88 = APPROVAL_PERSON_ORGANIZATION ( #80, #192, #75 ) ;
#89 = ORIENTED_EDGE ( 'NONE', *, *, #96, .F. ) ;
#90 = CARTESIAN_POINT ( 'NONE',  ( 12.77226205289666400, 12.85236898862614100, 0.3165744032392998600 ) ) ;
#91 = EDGE_CURVE ( 'NONE', #59, #64, #94, .T. ) ;
#92 = PERSON_AND_ORGANIZATION_ROLE ( 'creator' ) ;
#93 = APPROVAL_PERSON_ORGANIZATION ( #58, #65, #45 ) ;
#94 = CIRCLE ( 'NONE', #152, 12.69999999999999900 ) ;
#95 = DIRECTION ( 'NONE',  ( 0.0000000000000000000, 0.0000000000000000000, 1.000000000000000000 ) ) ;
#96 = EDGE_CURVE ( 'NONE', #53, #79, #82, .T. ) ;
#97 = CC_DESIGN_PERSON_AND_ORGANIZATION_ASSIGNMENT ( #182, #159, ( #196 ) ) ;
#98 = AXIS2_PLACEMENT_3D ( 'NONE', #219, #223, #111 ) ;
#99 = DIRECTION ( 'NONE',  ( 2.240877269159981100E-016, -1.000000000000000000, -4.280790532582056900E-016 ) ) ;
#100 = DIRECTION ( 'NONE',  ( 0.0000000000000000000, 0.0000000000000000000, 1.000000000000000000 ) ) ;
#101 = DIRECTION ( 'NONE',  ( -0.0000000000000000000, -0.0000000000000000000, -1.000000000000000000 ) ) ;
#102 = CARTESIAN_POINT ( 'NONE',  ( -2.255140518769849200E-014, -12.85236898862610000, 0.1592526990957899000 ) ) ;
#103 = CARTESIAN_POINT ( 'NONE',  ( -12.77749242632155800, 4.285000057869079400, 0.1042910283742868000 ) ) ;
#104 = DIRECTION ( 'NONE',  ( 1.000000000000000000, -1.776356839400250500E-015, 0.0000000000000000000 ) ) ;
#105 = DATE_AND_TIME ( #27, #51 ) ;
#106 = CIRCLE ( 'NONE', #29, 12.69999999999999900 ) ;
#107 = APPROVAL_STATUS ( 'not_yet_approved' ) ;
#108 = APPLICATION_CONTEXT ( 'configuration controlled 3d designs of mechanical parts and assemblies' ) ;
#109 = DATE_AND_TIME ( #121, #24 ) ;
#110 = LINE ( 'NONE', #212, #198 ) ;
#111 = DIRECTION ( 'NONE',  ( 1.000000000000000000, 0.0000000000000000000, 0.0000000000000000000 ) ) ;
#112 = PERSON_AND_ORGANIZATION ( #70, #144 ) ;
#113 = ADVANCED_FACE ( 'NONE', ( #43 ), #52, .T. ) ;
#114 = DIRECTION ( 'NONE',  ( 1.000000000000000000, 0.0000000000000000000, 0.0000000000000000000 ) ) ;
#115 = EDGE_CURVE ( 'NONE', #79, #131, #31, .T. ) ;
#116 = ORIENTED_EDGE ( 'NONE', *, *, #123, .F. ) ;
#117 = ADVANCED_FACE ( 'NONE', ( #217 ), #11, .T. ) ;
#118 = CARTESIAN_POINT ( 'NONE',  ( -8.519082159447856700, -4.285000057869049300, -0.0006304046260879512200 ) ) ;
#119 = CARTESIAN_POINT ( 'NONE',  ( 4.996003610813200500E-016, 2.442490654175340100E-015, 0.1554985346002160100 ) ) ;
#120 = CARTESIAN_POINT ( 'NONE',  ( -12.77226205289646500, 12.85236898862613400, 0.3165744032392892000 ) ) ;
#121 = CALENDAR_DATE ( 2018, 21, 12 ) ;
#122 = ORIENTED_EDGE ( 'NONE', *, *, #46, .F. ) ;
#123 = EDGE_CURVE ( 'NONE', #64, #179, #202, .T. ) ;
#124 = DIRECTION ( 'NONE',  ( 1.000000000000000000, 0.0000000000000000000, -0.0000000000000000000 ) ) ;
#125 =( NAMED_UNIT ( * ) PLANE_ANGLE_UNIT ( ) SI_UNIT ( $, .RADIAN. ) );
#126 = EDGE_LOOP ( 'NONE', ( #122, #28, #81 ) ) ;
#127 = APPROVAL_STATUS ( 'not_yet_approved' ) ;
#128 = AXIS2_PLACEMENT_3D ( 'NONE', #173, #36, #204 ) ;
#129 = PERSON_AND_ORGANIZATION ( #70, #144 ) ;
#130 = EDGE_LOOP ( 'NONE', ( #47, #191, #218, #232, #181 ) ) ;
#131 = VERTEX_POINT ( 'NONE', #12 ) ;
#132 = AXIS2_PLACEMENT_3D ( 'NONE', #135, #222, #32 ) ;
#133 = DATE_AND_TIME ( #194, #161 ) ;
#134 = ORIENTED_EDGE ( 'NONE', *, *, #115, .F. ) ;
#135 = CARTESIAN_POINT ( 'NONE',  ( 4.996003610813200500E-016, 2.442490654175340100E-015, 0.1554985346002160100 ) ) ;
#136 = PRODUCT ( '110-0259E BK7 pl-cx 25.4 F1000', '110-0259E BK7 pl-cx 25.4 F1000', '', ( #158 ) ) ;
#137 = CARTESIAN_POINT ( 'NONE',  ( 4.996003610813200500E-016, 2.442490654175340100E-015, 0.1554985346002160100 ) ) ;
#138 = COORDINATED_UNIVERSAL_TIME_OFFSET ( 2, 0, .AHEAD. ) ;
#139 = DIRECTION ( 'NONE',  ( 0.0000000000000000000, 0.0000000000000000000, 1.000000000000000000 ) ) ;
#140 = CIRCLE ( 'NONE', #98, 12.69999999999999900 ) ;
#141 = APPLICATION_PROTOCOL_DEFINITION ( 'international standard', 'config_control_design', 1994, #42 ) ;
#142 = DIRECTION ( 'NONE',  ( 0.0000000000000000000, 0.0000000000000000000, 1.000000000000000000 ) ) ;
#143 = PLANE ( 'NONE',  #147 ) ;
#144 = ORGANIZATION ( 'UNSPECIFIED', 'UNSPECIFIED', '' ) ;
#145 =( GEOMETRIC_REPRESENTATION_CONTEXT ( 3 ) GLOBAL_UNCERTAINTY_ASSIGNED_CONTEXT ( ( #195 ) ) GLOBAL_UNIT_ASSIGNED_CONTEXT ( ( #44, #125, #193 ) ) REPRESENTATION_CONTEXT ( 'NONE', 'WORKASPACE' ) );
#146 = ADVANCED_BREP_SHAPE_REPRESENTATION ( '110-0259E BK7 pl-cx 25.4 F1000', ( #48, #160 ), #145 ) ;
#147 = AXIS2_PLACEMENT_3D ( 'NONE', #76, #95, #124 ) ;
#148 = DIRECTION ( 'NONE',  ( -0.0000000000000000000, -0.0000000000000000000, -1.000000000000000000 ) ) ;
#149 = ORIENTED_EDGE ( 'NONE', *, *, #220, .T. ) ;
#150 = PRODUCT_DEFINITION_SHAPE ( 'NONE', 'NONE',  #180 ) ;
#151 = CARTESIAN_POINT ( 'NONE',  ( -12.69999999999999900, 3.997792089092478900E-015, 3.000000000000000000 ) ) ;
#152 = AXIS2_PLACEMENT_3D ( 'NONE', #119, #101, #104 ) ;
#153 = COORDINATED_UNIVERSAL_TIME_OFFSET ( 2, 0, .AHEAD. ) ;
#154 = CARTESIAN_POINT ( 'NONE',  ( -2.428612866367530200E-014, -4.285000057869047500, -0.05309510063437157500 ) ) ;
#155 = ORIENTED_EDGE ( 'NONE', *, *, #46, .T. ) ;
#156 = CARTESIAN_POINT ( 'NONE',  ( -8.519082159447860300, 4.285000057869080300, -0.0006304046260885745300 ) ) ;
#157 = APPROVAL_STATUS ( 'not_yet_approved' ) ;
#158 = MECHANICAL_CONTEXT ( 'NONE', #42, 'mechanical' ) ;
#159 = PERSON_AND_ORGANIZATION_ROLE ( 'design_supplier' ) ;
#160 = AXIS2_PLACEMENT_3D ( 'NONE', #74, #210, #174 ) ;
#161 = LOCAL_TIME ( 8, 46, 32.00000000000000000, #228 ) ;
#162 = CYLINDRICAL_SURFACE ( 'NONE', #2, 12.69999999999999900 ) ;
#163 = EDGE_LOOP ( 'NONE', ( #50, #134 ) ) ;
#164 = AXIS2_PLACEMENT_3D ( 'NONE', #231, #234, #21 ) ;
#165 = APPROVAL_DATE_TIME ( #38, #192 ) ;
#166 = ORIENTED_EDGE ( 'NONE', *, *, #123, .T. ) ;
#167 = DIRECTION ( 'NONE',  ( 1.000000000000000000, 0.0000000000000000000, 0.0000000000000000000 ) ) ;
#168 = FACE_OUTER_BOUND ( 'NONE', #163, .T. ) ;
#169 = DIRECTION ( 'NONE',  ( 0.0000000000000000000, 0.0000000000000000000, 1.000000000000000000 ) ) ;
#170 = CC_DESIGN_PERSON_AND_ORGANIZATION_ASSIGNMENT ( #129, #61, ( #136 ) ) ;
#171 = CARTESIAN_POINT ( 'NONE',  ( 9.753919579539150600E-014, 12.85236898862613800, 0.1592526990957798800 ) ) ;
#172 = CARTESIAN_POINT ( 'NONE',  ( 8.519082159448018400, 4.285000057869084800, -0.0006304046260806464100 ) ) ;
#173 = CARTESIAN_POINT ( 'NONE',  ( 4.996003610813200500E-016, 2.442490654175340100E-015, 3.000000000000000000 ) ) ;
#174 = DIRECTION ( 'NONE',  ( 1.000000000000000000, 0.0000000000000000000, 0.0000000000000000000 ) ) ;
#175 = PERSON_AND_ORGANIZATION_ROLE ( 'creator' ) ;
#176 = FACE_OUTER_BOUND ( 'NONE', #9, .T. ) ;
#177 = SECURITY_CLASSIFICATION ( '', '', #211 ) ;
#178 = PERSON_AND_ORGANIZATION_ROLE ( 'classification_officer' ) ;
#179 = VERTEX_POINT ( 'NONE', #20 ) ;
#180 = PRODUCT_DEFINITION ( 'UNKNOWN', '', #196, #15 ) ;
#181 = ORIENTED_EDGE ( 'NONE', *, *, #91, .F. ) ;
#182 = PERSON_AND_ORGANIZATION ( #70, #144 ) ;
#183 = CARTESIAN_POINT ( 'NONE',  ( 4.996003610813200500E-016, 2.442490654175340100E-015, 0.1554985346002160100 ) ) ;
#184 = CC_DESIGN_PERSON_AND_ORGANIZATION_ASSIGNMENT ( #63, #178, ( #177 ) ) ;
#185 = CARTESIAN_POINT ( 'NONE',  ( 1.014205925935549700E-013, -4.285000057869046600, -0.05309510063438165800 ) ) ;
#186 = ADVANCED_FACE ( 'NONE', ( #168 ), #143, .T. ) ;
#187 = CARTESIAN_POINT ( 'NONE',  ( 8.519082159448020200, -4.285000057869044800, -0.0006304046260800365500 ) ) ;
#188 = CARTESIAN_POINT ( 'NONE',  ( 4.257958953184124900, 12.85236898862614100, 0.1592526990957806600 ) ) ;
#189 = CARTESIAN_POINT ( 'NONE',  ( 8.515594935237956500, 12.85236898862614100, 0.2116959190630398300 ) ) ;
#190 = LOCAL_TIME ( 8, 46, 32.00000000000000000, #138 ) ;
#191 = ORIENTED_EDGE ( 'NONE', *, *, #96, .T. ) ;
#192 = APPROVAL ( #157, 'UNSPECIFIED' ) ;
#193 =( NAMED_UNIT ( * ) SI_UNIT ( $, .STERADIAN. ) SOLID_ANGLE_UNIT ( ) );
#194 = CALENDAR_DATE ( 2018, 21, 12 ) ;
#195 = UNCERTAINTY_MEASURE_WITH_UNIT (LENGTH_MEASURE( 1.000000000000000100E-005 ), #44, 'distance_accuracy_value', 'NONE');
#196 = PRODUCT_DEFINITION_FORMATION_WITH_SPECIFIED_SOURCE ( 'ANY', '', #136, .NOT_KNOWN. ) ;
#197 = PERSON_AND_ORGANIZATION ( #70, #144 ) ;
#198 = VECTOR ( 'NONE', #142, 1000.000000000000000 ) ;
#199 = CC_DESIGN_DATE_AND_TIME_ASSIGNMENT ( #133, #77, ( #177 ) ) ;
#200 = CALENDAR_DATE ( 2018, 21, 12 ) ;
#201 = DIRECTION ( 'NONE',  ( 1.000000000000000000, 2.240877269159980100E-016, 1.936574019886349900E-016 ) ) ;
#202 = CIRCLE ( 'NONE', #164, 12.69999999999999900 ) ;
#203 = CC_DESIGN_PERSON_AND_ORGANIZATION_ASSIGNMENT ( #197, #175, ( #180 ) ) ;
#204 = DIRECTION ( 'NONE',  ( 1.000000000000000000, 0.0000000000000000000, 0.0000000000000000000 ) ) ;
#205 = CARTESIAN_POINT ( 'NONE',  ( 12.77749242632176100, -4.285000057869043900, 0.1042910283742980600 ) ) ;
#206 = CC_DESIGN_APPROVAL ( #65, ( #196 ) ) ;
#207 = CARTESIAN_POINT ( 'NONE',  ( 8.515594935237963600, -12.85236898862610000, 0.2116959190630398600 ) ) ;
#208 = CARTESIAN_POINT ( 'NONE',  ( -4.259702631419047600, -4.285000057869048400, -0.05309510063437136700 ) ) ;
#209 = LOCAL_TIME ( 8, 46, 32.00000000000000000, #8 ) ;
#210 = DIRECTION ( 'NONE',  ( 0.0000000000000000000, 0.0000000000000000000, 1.000000000000000000 ) ) ;
#211 = SECURITY_CLASSIFICATION_LEVEL ( 'unclassified' ) ;
#212 = CARTESIAN_POINT ( 'NONE',  ( 12.69999999999999900, 2.442490654175340100E-015, 0.1554985346002160100 ) ) ;
#213 = VECTOR ( 'NONE', #139, 1000.000000000000000 ) ;
#214 = APPROVAL ( #107, 'UNSPECIFIED' ) ;
#215 = CALENDAR_DATE ( 2018, 21, 12 ) ;
#216 = CLOSED_SHELL ( 'NONE', ( #117, #33, #113, #84, #186 ) ) ;
#217 = FACE_OUTER_BOUND ( 'NONE', #39, .T. ) ;
#218 = ORIENTED_EDGE ( 'NONE', *, *, #115, .T. ) ;
#219 = CARTESIAN_POINT ( 'NONE',  ( 4.996003610813200500E-016, 2.442490654175340100E-015, 3.000000000000000000 ) ) ;
#220 = EDGE_CURVE ( 'NONE', #64, #131, #110, .T. ) ;
#221 = CARTESIAN_POINT ( 'NONE',  ( 0.0000000000000000000, 0.0000000000000000000, 518.7000000000000500 ) ) ;
#222 = DIRECTION ( 'NONE',  ( -0.0000000000000000000, -0.0000000000000000000, -1.000000000000000000 ) ) ;
#223 = DIRECTION ( 'NONE',  ( -0.0000000000000000000, -0.0000000000000000000, -1.000000000000000000 ) ) ;
#224 = ORIENTED_EDGE ( 'NONE', *, *, #71, .F. ) ;
#225 = DIRECTION ( 'NONE',  ( 1.000000000000000000, 0.0000000000000000000, 0.0000000000000000000 ) ) ;
#226 = CC_DESIGN_APPROVAL ( #214, ( #177 ) ) ;
#227 = CARTESIAN_POINT ( 'NONE',  ( -12.77749242632155500, -4.285000057869050100, 0.1042910283742874300 ) ) ;
#228 = COORDINATED_UNIVERSAL_TIME_OFFSET ( 2, 0, .AHEAD. ) ;
#229 = CARTESIAN_POINT ( 'NONE',  ( 4.259702631419166600, 4.285000057869083900, -0.05309510063438142900 ) ) ;
#230 = CARTESIAN_POINT ( 'NONE',  ( 12.77226205289667000, -12.85236898862609700, 0.3165744032392998600 ) ) ;
#231 = CARTESIAN_POINT ( 'NONE',  ( 4.996003610813200500E-016, 2.442490654175340100E-015, 0.1554985346002160100 ) ) ;
#232 = ORIENTED_EDGE ( 'NONE', *, *, #220, .F. ) ;
#233 = AXIS2_PLACEMENT_3D ( 'NONE', #137, #169, #114 ) ;
#234 = DIRECTION ( 'NONE',  ( -0.0000000000000000000, -0.0000000000000000000, -1.000000000000000000 ) ) ;
#235 = DATE_TIME_ROLE ( 'creation_date' ) ;
ENDSEC;
END-ISO-10303-21;
