ISO-10303-21;
HEADER;
FILE_DESCRIPTION (( 'STEP AP203' ),
    '1' );
FILE_NAME ('110-0257E BK7 pl-cx 25.4 F900.STEP',
    '2019-01-22T07:16:35',
    ( '' ),
    ( '' ),
    'SwSTEP 2.0',
    'SolidWorks 2017',
    '' );
FILE_SCHEMA (( 'CONFIG_CONTROL_DESIGN' ));
ENDSEC;

DATA;
#1 = APPROVAL_STATUS ( 'not_yet_approved' ) ;
#2 = LOCAL_TIME ( 9, 16, 35.00000000000000000, #66 ) ;
#3 = EDGE_LOOP ( 'NONE', ( #158, #74, #126, #162, #235 ) ) ;
#4 = CC_DESIGN_APPROVAL ( #119, ( #107 ) ) ;
#5 = ADVANCED_FACE ( 'NONE', ( #59 ), #203, .T. ) ;
#6 = DESIGN_CONTEXT ( 'detailed design', #67, 'design' ) ;
#7 = CIRCLE ( 'NONE', #92, 12.69999999999999900 ) ;
#8 = FACE_OUTER_BOUND ( 'NONE', #89, .T. ) ;
#9 = ADVANCED_FACE ( 'NONE', ( #110 ), #185, .T. ) ;
#10 = EDGE_CURVE ( 'NONE', #106, #228, #221, .T. ) ;
#11 = CARTESIAN_POINT ( 'NONE',  ( -12.77779524176615500, 4.285203131094671200, 0.1158669723404846500 ) ) ;
#12 = LOCAL_TIME ( 9, 16, 35.00000000000000000, #220 ) ;
#13 = CARTESIAN_POINT ( 'NONE',  ( -4.257777535096323600, 12.85236172368900000, 0.1769270776047868500 ) ) ;
#14 = VECTOR ( 'NONE', #213, 1000.000000000000000 ) ;
#15 = CARTESIAN_POINT ( 'NONE',  ( -8.519460673260756100, 4.285203131094673000, -0.0007011012878282688000 ) ) ;
#16 =( BOUNDED_SURFACE ( )  B_SPLINE_SURFACE ( 3, 3, ( 
 ( #147, #96, #223, #132 ),
 ( #189, #225, #165, #115 ),
 ( #134, #26, #190, #75 ),
 ( #206, #98, #227, #116 ) ),
 .UNSPECIFIED., .F., .F., .T. ) 
 B_SPLINE_SURFACE_WITH_KNOTS ( ( 4, 4 ),
 ( 4, 4 ),
 ( 0.0000000000000000000, 1.000000000000000000 ),
 ( 0.0000000000000000000, 1.000000000000000000 ),
 .UNSPECIFIED. ) 
 GEOMETRIC_REPRESENTATION_ITEM ( )  RATIONAL_B_SPLINE_SURFACE ( (
 ( 1.000000000000000000, 0.9999375870413995700, 0.9999375870413995700, 1.000000000000000000),
 ( 0.9997473733453203800, 0.9996849761538968400, 0.9996849761538968400, 0.9997473733453203800),
 ( 0.9997473733453203800, 0.9996849761538968400, 0.9996849761538968400, 0.9997473733453203800),
 ( 1.000000000000000000, 0.9999375870413995700, 0.9999375870413995700, 1.000000000000000000) ) ) 
 REPRESENTATION_ITEM ( '' )  SURFACE ( )  );
#17 = ORIENTED_EDGE ( 'NONE', *, *, #72, .T. ) ;
#18 = CARTESIAN_POINT ( 'NONE',  ( 4.996003610813200500E-016, 2.442490654175340100E-015, 0.1727563126403489900 ) ) ;
#19 = PERSON_AND_ORGANIZATION_ROLE ( 'design_owner' ) ;
#20 = PERSON_AND_ORGANIZATION ( #91, #144 ) ;
#21 = PERSON_AND_ORGANIZATION ( #91, #144 ) ;
#22 =( GEOMETRIC_REPRESENTATION_CONTEXT ( 3 ) GLOBAL_UNCERTAINTY_ASSIGNED_CONTEXT ( ( #131 ) ) GLOBAL_UNIT_ASSIGNED_CONTEXT ( ( #193, #169, #80 ) ) REPRESENTATION_CONTEXT ( 'NONE', 'WORKASPACE' ) );
#23 = EDGE_LOOP ( 'NONE', ( #127, #17, #171 ) ) ;
#24 = AXIS2_PLACEMENT_3D ( 'NONE', #121, #139, #152 ) ;
#25 = ADVANCED_FACE ( 'NONE', ( #166 ), #16, .T. ) ;
#26 = CARTESIAN_POINT ( 'NONE',  ( 4.259929742744317200, 4.285203131094673000, -0.05899059513164932300 ) ) ;
#27 = APPROVAL_PERSON_ORGANIZATION ( #88, #119, #46 ) ;
#28 = PRODUCT ( '110-0257E BK7 pl-cx 25.4 F900', '110-0257E BK7 pl-cx 25.4 F900', '', ( #216 ) ) ;
#29 = CARTESIAN_POINT ( 'NONE',  ( -12.77133962622634800, 12.85236172368900000, 0.3516963032926812000 ) ) ;
#30 = CC_DESIGN_SECURITY_CLASSIFICATION ( #87, ( #181 ) ) ;
#31 = DIRECTION ( 'NONE',  ( 0.0000000000000000000, 0.0000000000000000000, 1.000000000000000000 ) ) ;
#32 = CARTESIAN_POINT ( 'NONE',  ( -12.69999999999999900, 3.997792089092478900E-015, 3.000000000000000000 ) ) ;
#33 = CARTESIAN_POINT ( 'NONE',  ( 4.996003610813200500E-016, 2.442490654175340100E-015, 0.1727563126403489900 ) ) ;
#34 = CARTESIAN_POINT ( 'NONE',  ( -12.69999999999999900, 3.997792089092478900E-015, 0.1727563126403489900 ) ) ;
#35 = LOCAL_TIME ( 9, 16, 35.00000000000000000, #113 ) ;
#36 = CC_DESIGN_PERSON_AND_ORGANIZATION_ASSIGNMENT ( #57, #217, ( #181 ) ) ;
#37 = LOCAL_TIME ( 9, 16, 35.00000000000000000, #178 ) ;
#38 = CARTESIAN_POINT ( 'NONE',  ( -1.717376241217039000E-013, -4.285203131094542400, -0.05899059513161360900 ) ) ;
#39 = ORIENTED_EDGE ( 'NONE', *, *, #50, .F. ) ;
#40 = DIRECTION ( 'NONE',  ( 0.0000000000000000000, -1.000000000000000000, -2.377860408278339200E-016 ) ) ;
#41 = CARTESIAN_POINT ( 'NONE',  ( 12.69999999999999900, 2.442490654175340100E-015, 0.1727563126403489900 ) ) ;
#42 = LOCAL_TIME ( 9, 16, 35.00000000000000000, #71 ) ;
#43 = ORIENTED_EDGE ( 'NONE', *, *, #99, .F. ) ;
#44 = DIRECTION ( 'NONE',  ( -0.0000000000000000000, -0.0000000000000000000, -1.000000000000000000 ) ) ;
#45 = CC_DESIGN_PERSON_AND_ORGANIZATION_ASSIGNMENT ( #20, #68, ( #181 ) ) ;
#46 = APPROVAL_ROLE ( '' ) ;
#47 = EDGE_CURVE ( 'NONE', #201, #159, #52, .T. ) ;
#48 = DATE_AND_TIME ( #82, #2 ) ;
#49 = APPLICATION_PROTOCOL_DEFINITION ( 'international standard', 'config_control_design', 1994, #67 ) ;
#50 = EDGE_CURVE ( 'NONE', #188, #85, #198, .T. ) ;
#51 = CIRCLE ( 'NONE', #53, 12.69999999999999900 ) ;
#52 = LINE ( 'NONE', #205, #14 ) ;
#53 = AXIS2_PLACEMENT_3D ( 'NONE', #140, #154, #195 ) ;
#54 = CARTESIAN_POINT ( 'NONE',  ( -8.515156459452937200, 12.85236172368900000, 0.2351871223491642500 ) ) ;
#55 = ADVANCED_BREP_SHAPE_REPRESENTATION ( '110-0257E BK7 pl-cx 25.4 F900', ( #160, #128 ), #22 ) ;
#56 = DIRECTION ( 'NONE',  ( 1.000000000000000000, 0.0000000000000000000, 0.0000000000000000000 ) ) ;
#57 = PERSON_AND_ORGANIZATION ( #91, #144 ) ;
#58 = CARTESIAN_POINT ( 'NONE',  ( 4.996003610813200500E-016, 2.442490654175340100E-015, 0.1727563126403489900 ) ) ;
#59 = FACE_OUTER_BOUND ( 'NONE', #3, .T. ) ;
#60 = DIRECTION ( 'NONE',  ( 1.000000000000000000, 0.0000000000000000000, 0.0000000000000000000 ) ) ;
#61 = DIRECTION ( 'NONE',  ( 1.000000000000000000, 0.0000000000000000000, 0.0000000000000000000 ) ) ;
#62 = DIRECTION ( 'NONE',  ( 0.0000000000000000000, 0.0000000000000000000, 1.000000000000000000 ) ) ;
#63 = DIRECTION ( 'NONE',  ( 1.000000000000000000, 0.0000000000000000000, 0.0000000000000000000 ) ) ;
#64 = DIRECTION ( 'NONE',  ( 1.000000000000000000, 0.0000000000000000000, 0.0000000000000000000 ) ) ;
#65 = DATE_AND_TIME ( #231, #12 ) ;
#66 = COORDINATED_UNIVERSAL_TIME_OFFSET ( 2, 0, .AHEAD. ) ;
#67 = APPLICATION_CONTEXT ( 'configuration controlled 3d designs of mechanical parts and assemblies' ) ;
#68 = PERSON_AND_ORGANIZATION_ROLE ( 'design_supplier' ) ;
#69 = AXIS2_PLACEMENT_3D ( 'NONE', #18, #233, #232 ) ;
#70 = AXIS2_PLACEMENT_3D ( 'NONE', #150, #60, #40 ) ;
#71 = COORDINATED_UNIVERSAL_TIME_OFFSET ( 2, 0, .AHEAD. ) ;
#72 = EDGE_CURVE ( 'NONE', #106, #188, #101, .T. ) ;
#73 = APPROVAL_DATE_TIME ( #100, #130 ) ;
#74 = ORIENTED_EDGE ( 'NONE', *, *, #50, .T. ) ;
#75 = CARTESIAN_POINT ( 'NONE',  ( 12.77779524176615100, 4.285203131094671200, 0.1158669723404903300 ) ) ;
#76 = CARTESIAN_POINT ( 'NONE',  ( -8.515156459452937200, -12.85236172368887300, 0.2351871223491642500 ) ) ;
#77 = PRODUCT_DEFINITION_SHAPE ( 'NONE', 'NONE',  #107 ) ;
#78 = DIRECTION ( 'NONE',  ( 0.0000000000000000000, 0.0000000000000000000, 1.000000000000000000 ) ) ;
#79 = AXIS2_PLACEMENT_3D ( 'NONE', #58, #207, #56 ) ;
#80 =( NAMED_UNIT ( * ) SI_UNIT ( $, .STERADIAN. ) SOLID_ANGLE_UNIT ( ) );
#81 = DIRECTION ( 'NONE',  ( 1.000000000000000000, 0.0000000000000000000, 0.0000000000000000000 ) ) ;
#82 = CALENDAR_DATE ( 2019, 22, 1 ) ;
#83 = DIRECTION ( 'NONE',  ( -0.0000000000000000000, -0.0000000000000000000, -1.000000000000000000 ) ) ;
#84 = APPLICATION_PROTOCOL_DEFINITION ( 'international standard', 'config_control_design', 1994, #194 ) ;
#85 = VERTEX_POINT ( 'NONE', #32 ) ;
#86 = SECURITY_CLASSIFICATION_LEVEL ( 'unclassified' ) ;
#87 = SECURITY_CLASSIFICATION ( '', '', #86 ) ;
#88 = PERSON_AND_ORGANIZATION ( #91, #144 ) ;
#89 = EDGE_LOOP ( 'NONE', ( #226, #114 ) ) ;
#90 = ORIENTED_EDGE ( 'NONE', *, *, #72, .F. ) ;
#91 = PERSON ( 'UNSPECIFIED', 'UNSPECIFIED', 'UNSPECIFIED', ('UNSPECIFIED'), ('UNSPECIFIED'), ('UNSPECIFIED') ) ;
#92 = AXIS2_PLACEMENT_3D ( 'NONE', #174, #215, #63 ) ;
#93 = ADVANCED_FACE ( 'NONE', ( #138 ), #149, .T. ) ;
#94 = APPROVAL_PERSON_ORGANIZATION ( #21, #214, #234 ) ;
#95 = SHAPE_DEFINITION_REPRESENTATION ( #77, #55 ) ;
#96 = CARTESIAN_POINT ( 'NONE',  ( 4.257777535096169100, -12.85236172368887300, 0.1769270776047493500 ) ) ;
#97 = ORIENTED_EDGE ( 'NONE', *, *, #163, .T. ) ;
#98 = CARTESIAN_POINT ( 'NONE',  ( 4.257777535096169100, 12.85236172368900000, 0.1769270776047493500 ) ) ;
#99 = EDGE_CURVE ( 'NONE', #201, #106, #155, .T. ) ;
#100 = DATE_AND_TIME ( #224, #35 ) ;
#101 = CIRCLE ( 'NONE', #182, 12.69999999999999900 ) ;
#102 = CARTESIAN_POINT ( 'NONE',  ( -12.69999999999999900, 3.997792089092478900E-015, 0.1727563126403489900 ) ) ;
#103 = CARTESIAN_POINT ( 'NONE',  ( 0.0000000000000000000, 0.0000000000000000000, 0.0000000000000000000 ) ) ;
#104 = ORIENTED_EDGE ( 'NONE', *, *, #47, .T. ) ;
#105 = EDGE_CURVE ( 'NONE', #188, #228, #123, .T. ) ;
#106 = VERTEX_POINT ( 'NONE', #175 ) ;
#107 = PRODUCT_DEFINITION ( 'UNKNOWN', '', #181, #6 ) ;
#108 = DATE_TIME_ROLE ( 'creation_date' ) ;
#109 = DATE_TIME_ROLE ( 'classification_date' ) ;
#110 = FACE_OUTER_BOUND ( 'NONE', #23, .T. ) ;
#111 = ADVANCED_FACE ( 'NONE', ( #8 ), #156, .T. ) ;
#112 = CC_DESIGN_DATE_AND_TIME_ASSIGNMENT ( #65, #109, ( #87 ) ) ;
#113 = COORDINATED_UNIVERSAL_TIME_OFFSET ( 2, 0, .AHEAD. ) ;
#114 = ORIENTED_EDGE ( 'NONE', *, *, #153, .F. ) ;
#115 = CARTESIAN_POINT ( 'NONE',  ( 12.77779524176615100, -4.285203131094542400, 0.1158669723404895500 ) ) ;
#116 = CARTESIAN_POINT ( 'NONE',  ( 12.77133962622634300, 12.85236172368900000, 0.3516963032926869700 ) ) ;
#117 = EDGE_LOOP ( 'NONE', ( #120, #222, #97 ) ) ;
#118 = CARTESIAN_POINT ( 'NONE',  ( -4.259929742744470000, -4.285203131094544200, -0.05899059513161257500 ) ) ;
#119 = APPROVAL ( #142, 'UNSPECIFIED' ) ;
#120 = ORIENTED_EDGE ( 'NONE', *, *, #99, .T. ) ;
#121 = CARTESIAN_POINT ( 'NONE',  ( 4.996003610813200500E-016, 2.442490654175340100E-015, 0.1727563126403489900 ) ) ;
#122 = CARTESIAN_POINT ( 'NONE',  ( 12.69999999999999900, 2.442490654175340100E-015, 3.000000000000000000 ) ) ;
#123 = CIRCLE ( 'NONE', #209, 12.69999999999999900 ) ;
#124 = CC_DESIGN_APPROVAL ( #214, ( #87 ) ) ;
#125 = AXIS2_PLACEMENT_3D ( 'NONE', #151, #172, #61 ) ;
#126 = ORIENTED_EDGE ( 'NONE', *, *, #153, .T. ) ;
#127 = ORIENTED_EDGE ( 'NONE', *, *, #10, .F. ) ;
#128 = AXIS2_PLACEMENT_3D ( 'NONE', #103, #78, #218 ) ;
#129 = APPROVAL_STATUS ( 'not_yet_approved' ) ;
#130 = APPROVAL ( #1, 'UNSPECIFIED' ) ;
#131 = UNCERTAINTY_MEASURE_WITH_UNIT (LENGTH_MEASURE( 1.000000000000000100E-005 ), #193, 'distance_accuracy_value', 'NONE');
#132 = CARTESIAN_POINT ( 'NONE',  ( 12.77133962622634300, -12.85236172368887300, 0.3516963032926869700 ) ) ;
#133 = DATE_AND_TIME ( #180, #37 ) ;
#134 = CARTESIAN_POINT ( 'NONE',  ( -5.684341886080800200E-014, 4.285203131094671200, -0.05899059513164930900 ) ) ;
#135 = CC_DESIGN_DATE_AND_TIME_ASSIGNMENT ( #133, #108, ( #107 ) ) ;
#136 = CARTESIAN_POINT ( 'NONE',  ( -12.77779524176615500, -4.285203131094542400, 0.1158669723404838900 ) ) ;
#137 = PERSON_AND_ORGANIZATION ( #91, #144 ) ;
#138 = FACE_OUTER_BOUND ( 'NONE', #212, .T. ) ;
#139 = DIRECTION ( 'NONE',  ( 0.0000000000000000000, 0.0000000000000000000, 1.000000000000000000 ) ) ;
#140 = CARTESIAN_POINT ( 'NONE',  ( 4.996003610813200500E-016, 2.442490654175340100E-015, 3.000000000000000000 ) ) ;
#141 = APPROVAL_PERSON_ORGANIZATION ( #177, #130, #199 ) ;
#142 = APPROVAL_STATUS ( 'not_yet_approved' ) ;
#143 = PERSON_AND_ORGANIZATION_ROLE ( 'creator' ) ;
#144 = ORGANIZATION ( 'UNSPECIFIED', 'UNSPECIFIED', '' ) ;
#145 = PERSON_AND_ORGANIZATION ( #91, #144 ) ;
#146 = VECTOR ( 'NONE', #31, 1000.000000000000000 ) ;
#147 = CARTESIAN_POINT ( 'NONE',  ( -5.684341886080800200E-014, -12.85236172368887300, 0.1769270776047493500 ) ) ;
#148 = CC_DESIGN_PERSON_AND_ORGANIZATION_ASSIGNMENT ( #145, #200, ( #87 ) ) ;
#149 = CYLINDRICAL_SURFACE ( 'NONE', #24, 12.69999999999999900 ) ;
#150 = CARTESIAN_POINT ( 'NONE',  ( -5.684341886080800200E-014, 8.526512829121199700E-014, 466.8999999999999800 ) ) ;
#151 = CARTESIAN_POINT ( 'NONE',  ( 4.996003610813200500E-016, 2.442490654175340100E-015, 0.1727563126403489900 ) ) ;
#152 = DIRECTION ( 'NONE',  ( 1.000000000000000000, 0.0000000000000000000, 0.0000000000000000000 ) ) ;
#153 = EDGE_CURVE ( 'NONE', #85, #159, #51, .T. ) ;
#154 = DIRECTION ( 'NONE',  ( -0.0000000000000000000, -0.0000000000000000000, -1.000000000000000000 ) ) ;
#155 = CIRCLE ( 'NONE', #125, 12.69999999999999900 ) ;
#156 = PLANE ( 'NONE',  #230 ) ;
#157 = DATE_AND_TIME ( #179, #42 ) ;
#158 = ORIENTED_EDGE ( 'NONE', *, *, #105, .F. ) ;
#159 = VERTEX_POINT ( 'NONE', #122 ) ;
#160 = MANIFOLD_SOLID_BREP ( 'Imported1', #184 ) ;
#161 = APPROVAL_DATE_TIME ( #157, #214 ) ;
#162 = ORIENTED_EDGE ( 'NONE', *, *, #47, .F. ) ;
#163 = EDGE_CURVE ( 'NONE', #228, #201, #170, .T. ) ;
#164 = CARTESIAN_POINT ( 'NONE',  ( -4.257777535096323600, -12.85236172368887300, 0.1769270776047868500 ) ) ;
#165 = CARTESIAN_POINT ( 'NONE',  ( 8.519460673260677900, -4.285203131094544200, -0.0007011012878263849900 ) ) ;
#166 = FACE_OUTER_BOUND ( 'NONE', #117, .T. ) ;
#167 = CC_DESIGN_PERSON_AND_ORGANIZATION_ASSIGNMENT ( #197, #19, ( #28 ) ) ;
#168 = CARTESIAN_POINT ( 'NONE',  ( -1.717376241217039000E-013, 4.285203131094671200, -0.05899059513161285200 ) ) ;
#169 =( NAMED_UNIT ( * ) PLANE_ANGLE_UNIT ( ) SI_UNIT ( $, .RADIAN. ) );
#170 = CIRCLE ( 'NONE', #69, 12.69999999999999900 ) ;
#171 = ORIENTED_EDGE ( 'NONE', *, *, #105, .T. ) ;
#172 = DIRECTION ( 'NONE',  ( -0.0000000000000000000, -0.0000000000000000000, -1.000000000000000000 ) ) ;
#173 = CC_DESIGN_PERSON_AND_ORGANIZATION_ASSIGNMENT ( #137, #143, ( #107 ) ) ;
#174 = CARTESIAN_POINT ( 'NONE',  ( 4.996003610813200500E-016, 2.442490654175340100E-015, 3.000000000000000000 ) ) ;
#175 = CARTESIAN_POINT ( 'NONE',  ( -5.684341886080800200E-014, -12.70000000000012000, 0.1727563126403238200 ) ) ;
#176 = DIRECTION ( 'NONE',  ( 1.000000000000000000, 0.0000000000000000000, -0.0000000000000000000 ) ) ;
#177 = PERSON_AND_ORGANIZATION ( #91, #144 ) ;
#178 = COORDINATED_UNIVERSAL_TIME_OFFSET ( 2, 0, .AHEAD. ) ;
#179 = CALENDAR_DATE ( 2019, 22, 1 ) ;
#180 = CALENDAR_DATE ( 2019, 22, 1 ) ;
#181 = PRODUCT_DEFINITION_FORMATION_WITH_SPECIFIED_SOURCE ( 'ANY', '', #28, .NOT_KNOWN. ) ;
#182 = AXIS2_PLACEMENT_3D ( 'NONE', #33, #44, #64 ) ;
#183 = ORIENTED_EDGE ( 'NONE', *, *, #219, .T. ) ;
#184 = CLOSED_SHELL ( 'NONE', ( #25, #5, #9, #93, #111 ) ) ;
#185 =( BOUNDED_SURFACE ( )  B_SPLINE_SURFACE ( 3, 3, ( 
 ( #204, #76, #164, #191 ),
 ( #136, #208, #118, #38 ),
 ( #11, #15, #192, #168 ),
 ( #29, #54, #13, #186 ) ),
 .UNSPECIFIED., .F., .F., .F. ) 
 B_SPLINE_SURFACE_WITH_KNOTS ( ( 4, 4 ),
 ( 4, 4 ),
 ( 0.0000000000000000000, 1.000000000000000000 ),
 ( 0.0000000000000000000, 1.000000000000000000 ),
 .UNSPECIFIED. ) 
 GEOMETRIC_REPRESENTATION_ITEM ( )  RATIONAL_B_SPLINE_SURFACE ( (
 ( 1.000000000000000000, 0.9999375870413995700, 0.9999375870413995700, 1.000000000000000000),
 ( 0.9997473733453203800, 0.9996849761538968400, 0.9996849761538968400, 0.9997473733453203800),
 ( 0.9997473733453203800, 0.9996849761538968400, 0.9996849761538968400, 0.9997473733453203800),
 ( 1.000000000000000000, 0.9999375870413995700, 0.9999375870413995700, 1.000000000000000000) ) ) 
 REPRESENTATION_ITEM ( '' )  SURFACE ( )  );
#186 = CARTESIAN_POINT ( 'NONE',  ( -1.717376241217039000E-013, 12.85236172368900000, 0.1769270776047857900 ) ) ;
#187 = APPROVAL_DATE_TIME ( #48, #119 ) ;
#188 = VERTEX_POINT ( 'NONE', #102 ) ;
#189 = CARTESIAN_POINT ( 'NONE',  ( -5.684341886080800200E-014, -4.285203131094542400, -0.05899059513165007300 ) ) ;
#190 = CARTESIAN_POINT ( 'NONE',  ( 8.519460673260677900, 4.285203131094673000, -0.0007011012878256125000 ) ) ;
#191 = CARTESIAN_POINT ( 'NONE',  ( -1.717376241217039000E-013, -12.85236172368887300, 0.1769270776047857900 ) ) ;
#192 = CARTESIAN_POINT ( 'NONE',  ( -4.259929742744470000, 4.285203131094673000, -0.05899059513161181200 ) ) ;
#193 =( LENGTH_UNIT ( ) NAMED_UNIT ( * ) SI_UNIT ( .MILLI., .METRE. ) );
#194 = APPLICATION_CONTEXT ( 'configuration controlled 3d designs of mechanical parts and assemblies' ) ;
#195 = DIRECTION ( 'NONE',  ( 1.000000000000000000, 0.0000000000000000000, 0.0000000000000000000 ) ) ;
#196 = PRODUCT_RELATED_PRODUCT_CATEGORY ( 'detail', '', ( #28 ) ) ;
#197 = PERSON_AND_ORGANIZATION ( #91, #144 ) ;
#198 = LINE ( 'NONE', #34, #146 ) ;
#199 = APPROVAL_ROLE ( '' ) ;
#200 = PERSON_AND_ORGANIZATION_ROLE ( 'classification_officer' ) ;
#201 = VERTEX_POINT ( 'NONE', #41 ) ;
#202 = CC_DESIGN_APPROVAL ( #130, ( #181 ) ) ;
#203 = CYLINDRICAL_SURFACE ( 'NONE', #79, 12.69999999999999900 ) ;
#204 = CARTESIAN_POINT ( 'NONE',  ( -12.77133962622634800, -12.85236172368887300, 0.3516963032926812000 ) ) ;
#205 = CARTESIAN_POINT ( 'NONE',  ( 12.69999999999999900, 2.442490654175340100E-015, 0.1727563126403489900 ) ) ;
#206 = CARTESIAN_POINT ( 'NONE',  ( -5.684341886080800200E-014, 12.85236172368900000, 0.1769270776047493500 ) ) ;
#207 = DIRECTION ( 'NONE',  ( 0.0000000000000000000, 0.0000000000000000000, 1.000000000000000000 ) ) ;
#208 = CARTESIAN_POINT ( 'NONE',  ( -8.519460673260756100, -4.285203131094544200, -0.0007011012878290278500 ) ) ;
#209 = AXIS2_PLACEMENT_3D ( 'NONE', #211, #83, #81 ) ;
#210 = CARTESIAN_POINT ( 'NONE',  ( -5.684341886080800200E-014, 12.70000000000020700, 0.1727563126403238200 ) ) ;
#211 = CARTESIAN_POINT ( 'NONE',  ( 4.996003610813200500E-016, 2.442490654175340100E-015, 0.1727563126403489900 ) ) ;
#212 = EDGE_LOOP ( 'NONE', ( #39, #90, #43, #104, #183 ) ) ;
#213 = DIRECTION ( 'NONE',  ( 0.0000000000000000000, 0.0000000000000000000, 1.000000000000000000 ) ) ;
#214 = APPROVAL ( #129, 'UNSPECIFIED' ) ;
#215 = DIRECTION ( 'NONE',  ( -0.0000000000000000000, -0.0000000000000000000, -1.000000000000000000 ) ) ;
#216 = MECHANICAL_CONTEXT ( 'NONE', #194, 'mechanical' ) ;
#217 = PERSON_AND_ORGANIZATION_ROLE ( 'creator' ) ;
#218 = DIRECTION ( 'NONE',  ( 1.000000000000000000, 0.0000000000000000000, 0.0000000000000000000 ) ) ;
#219 = EDGE_CURVE ( 'NONE', #159, #85, #7, .T. ) ;
#220 = COORDINATED_UNIVERSAL_TIME_OFFSET ( 2, 0, .AHEAD. ) ;
#221 = CIRCLE ( 'NONE', #70, 466.8999999999999800 ) ;
#222 = ORIENTED_EDGE ( 'NONE', *, *, #10, .T. ) ;
#223 = CARTESIAN_POINT ( 'NONE',  ( 8.515156459452857300, -12.85236172368887300, 0.2351871223491669700 ) ) ;
#224 = CALENDAR_DATE ( 2019, 22, 1 ) ;
#225 = CARTESIAN_POINT ( 'NONE',  ( 4.259929742744317200, -4.285203131094544200, -0.05899059513165008000 ) ) ;
#226 = ORIENTED_EDGE ( 'NONE', *, *, #219, .F. ) ;
#227 = CARTESIAN_POINT ( 'NONE',  ( 8.515156459452857300, 12.85236172368900000, 0.2351871223491669700 ) ) ;
#228 = VERTEX_POINT ( 'NONE', #210 ) ;
#229 = CARTESIAN_POINT ( 'NONE',  ( 0.0000000000000000000, 26.11199999999999800, 3.000000000000000000 ) ) ;
#230 = AXIS2_PLACEMENT_3D ( 'NONE', #229, #62, #176 ) ;
#231 = CALENDAR_DATE ( 2019, 22, 1 ) ;
#232 = DIRECTION ( 'NONE',  ( 1.000000000000000000, 8.881784197001252300E-016, 0.0000000000000000000 ) ) ;
#233 = DIRECTION ( 'NONE',  ( -0.0000000000000000000, -0.0000000000000000000, -1.000000000000000000 ) ) ;
#234 = APPROVAL_ROLE ( '' ) ;
#235 = ORIENTED_EDGE ( 'NONE', *, *, #163, .F. ) ;
ENDSEC;
END-ISO-10303-21;
