ISO-10303-21;
HEADER;
FILE_DESCRIPTION (( 'STEP AP203' ),
    '1' );
FILE_NAME ('110-0249E BK7 pl-cx 25.4 F600.STEP',
    '2018-12-21T06:47:41',
    ( '' ),
    ( '' ),
    'SwSTEP 2.0',
    'SolidWorks 2017',
    '' );
FILE_SCHEMA (( 'CONFIG_CONTROL_DESIGN' ));
ENDSEC;

DATA;
#1 = ORIENTED_EDGE ( 'NONE', *, *, #123, .T. ) ;
#2 = COORDINATED_UNIVERSAL_TIME_OFFSET ( 2, 0, .AHEAD. ) ;
#3 = CC_DESIGN_DATE_AND_TIME_ASSIGNMENT ( #221, #213, ( #144 ) ) ;
#4 = CARTESIAN_POINT ( 'NONE',  ( 12.69999999999999900, 2.442490654175340100E-015, 0.2592500169847460300 ) ) ;
#5 = CARTESIAN_POINT ( 'NONE',  ( 0.0000000000000000000, 26.11199999999999800, 3.000000000000000000 ) ) ;
#6 = AXIS2_PLACEMENT_3D ( 'NONE', #7, #133, #32 ) ;
#7 = CARTESIAN_POINT ( 'NONE',  ( 4.996003610813200500E-016, 2.442490654175340100E-015, 0.2592500169847460300 ) ) ;
#8 = ORIENTED_EDGE ( 'NONE', *, *, #150, .F. ) ;
#9 = CLOSED_SHELL ( 'NONE', ( #214, #117, #170, #83, #101 ) ) ;
#10 = DIRECTION ( 'NONE',  ( -0.0000000000000000000, -0.0000000000000000000, -1.000000000000000000 ) ) ;
#11 = CARTESIAN_POINT ( 'NONE',  ( -4.256580974813915400, -12.85231380956092400, 0.2655084591923446100 ) ) ;
#12 = PERSON_AND_ORGANIZATION ( #63, #67 ) ;
#13 = CYLINDRICAL_SURFACE ( 'NONE', #235, 12.69999999999999900 ) ;
#14 = DATE_TIME_ROLE ( 'creation_date' ) ;
#15 = APPLICATION_CONTEXT ( 'configuration controlled 3d designs of mechanical parts and assemblies' ) ;
#16 = ORIENTED_EDGE ( 'NONE', *, *, #111, .T. ) ;
#17 = CARTESIAN_POINT ( 'NONE',  ( 4.996003610813200500E-016, 2.442490654175340100E-015, 3.000000000000000000 ) ) ;
#18 = AXIS2_PLACEMENT_3D ( 'NONE', #153, #10, #207 ) ;
#19 = PERSON_AND_ORGANIZATION ( #63, #67 ) ;
#20 = CIRCLE ( 'NONE', #216, 12.69999999999999900 ) ;
#21 = CC_DESIGN_DATE_AND_TIME_ASSIGNMENT ( #49, #14, ( #88 ) ) ;
#22 = PRODUCT ( '110-0249E BK7 pl-cx 25.4 F600', '110-0249E BK7 pl-cx 25.4 F600', '', ( #40 ) ) ;
#23 = FACE_OUTER_BOUND ( 'NONE', #27, .T. ) ;
#24 = VERTEX_POINT ( 'NONE', #25 ) ;
#25 = CARTESIAN_POINT ( 'NONE',  ( 8.526512829121199700E-014, 12.69999999999993400, 0.2592500169847408200 ) ) ;
#26 = APPROVAL_PERSON_ORGANIZATION ( #19, #56, #59 ) ;
#27 = EDGE_LOOP ( 'NONE', ( #193, #198, #8, #47, #141 ) ) ;
#28 = CARTESIAN_POINT ( 'NONE',  ( 4.996003610813200500E-016, 2.442490654175340100E-015, 0.2592500169847460300 ) ) ;
#29 = DESIGN_CONTEXT ( 'detailed design', #15, 'design' ) ;
#30 = DIRECTION ( 'NONE',  ( 0.0000000000000000000, 0.0000000000000000000, 1.000000000000000000 ) ) ;
#31 = COORDINATED_UNIVERSAL_TIME_OFFSET ( 2, 0, .AHEAD. ) ;
#32 = DIRECTION ( 'NONE',  ( 1.000000000000000000, 0.0000000000000000000, 0.0000000000000000000 ) ) ;
#33 = CC_DESIGN_SECURITY_CLASSIFICATION ( #144, ( #220 ) ) ;
#34 = CARTESIAN_POINT ( 'NONE',  ( -8.521957614414082700, -4.286542720909939600, -0.001059368527970731400 ) ) ;
#35 = DIRECTION ( 'NONE',  ( -0.0000000000000000000, -0.0000000000000000000, -1.000000000000000000 ) ) ;
#36 = VERTEX_POINT ( 'NONE', #98 ) ;
#37 = CARTESIAN_POINT ( 'NONE',  ( 1.214306433183765000E-014, -12.85231380956092700, 0.2655084591923435600 ) ) ;
#38 = CARTESIAN_POINT ( 'NONE',  ( 4.256580974813880800, 12.85231380956100200, 0.2655084591923762600 ) ) ;
#39 = CARTESIAN_POINT ( 'NONE',  ( 12.76525697361250500, 12.85231380956100500, 0.5276545230679838800 ) ) ;
#40 = MECHANICAL_CONTEXT ( 'NONE', #93, 'mechanical' ) ;
#41 = AXIS2_PLACEMENT_3D ( 'NONE', #176, #172, #138 ) ;
#42 = PERSON_AND_ORGANIZATION ( #63, #67 ) ;
#43 = AXIS2_PLACEMENT_3D ( 'NONE', #28, #48, #165 ) ;
#44 = ORIENTED_EDGE ( 'NONE', *, *, #111, .F. ) ;
#45 = LOCAL_TIME ( 8, 47, 41.00000000000000000, #159 ) ;
#46 = DIRECTION ( 'NONE',  ( 1.000000000000000000, 1.776356839400250500E-015, 0.0000000000000000000 ) ) ;
#47 = ORIENTED_EDGE ( 'NONE', *, *, #113, .T. ) ;
#48 = DIRECTION ( 'NONE',  ( 0.0000000000000000000, 0.0000000000000000000, 1.000000000000000000 ) ) ;
#49 = DATE_AND_TIME ( #84, #127 ) ;
#50 = EDGE_LOOP ( 'NONE', ( #44, #115, #1 ) ) ;
#51 = PRODUCT_DEFINITION_SHAPE ( 'NONE', 'NONE',  #88 ) ;
#52 = CARTESIAN_POINT ( 'NONE',  ( 4.996003610813200500E-016, 2.442490654175340100E-015, 0.2592500169847460300 ) ) ;
#53 = CARTESIAN_POINT ( 'NONE',  ( 4.996003610813200500E-016, 2.442490654175340100E-015, 0.2592500169847460300 ) ) ;
#54 = CARTESIAN_POINT ( 'NONE',  ( -4.261427950976831800, -4.286542720909939600, -0.08855318738364857700 ) ) ;
#55 = CARTESIAN_POINT ( 'NONE',  ( 8.526512829121199700E-014, -12.69999999999984800, 0.2592500169847408200 ) ) ;
#56 = APPROVAL ( #110, 'UNSPECIFIED' ) ;
#57 = CARTESIAN_POINT ( 'NONE',  ( -12.69999999999999900, 3.997792089092478900E-015, 3.000000000000000000 ) ) ;
#58 = AXIS2_PLACEMENT_3D ( 'NONE', #5, #132, #86 ) ;
#59 = APPROVAL_ROLE ( '' ) ;
#60 = PERSON_AND_ORGANIZATION_ROLE ( 'design_owner' ) ;
#61 =( LENGTH_UNIT ( ) NAMED_UNIT ( * ) SI_UNIT ( .MILLI., .METRE. ) );
#62 = FACE_OUTER_BOUND ( 'NONE', #78, .T. ) ;
#63 = PERSON ( 'UNSPECIFIED', 'UNSPECIFIED', 'UNSPECIFIED', ('UNSPECIFIED'), ('UNSPECIFIED'), ('UNSPECIFIED') ) ;
#64 = AXIS2_PLACEMENT_3D ( 'NONE', #17, #95, #155 ) ;
#65 = CARTESIAN_POINT ( 'NONE',  ( 8.526512829121199700E-014, 8.526512829121199700E-014, 311.1999999999999900 ) ) ;
#66 =( GEOMETRIC_REPRESENTATION_CONTEXT ( 3 ) GLOBAL_UNCERTAINTY_ASSIGNED_CONTEXT ( ( #68 ) ) GLOBAL_UNIT_ASSIGNED_CONTEXT ( ( #61, #211, #156 ) ) REPRESENTATION_CONTEXT ( 'NONE', 'WORKASPACE' ) );
#67 = ORGANIZATION ( 'UNSPECIFIED', 'UNSPECIFIED', '' ) ;
#68 = UNCERTAINTY_MEASURE_WITH_UNIT (LENGTH_MEASURE( 1.000000000000000100E-005 ), #61, 'distance_accuracy_value', 'NONE');
#69 = CARTESIAN_POINT ( 'NONE',  ( 4.261427950976795400, 4.286542720910017800, -0.08855318738361443700 ) ) ;
#70 = ORIENTED_EDGE ( 'NONE', *, *, #105, .T. ) ;
#71 = CARTESIAN_POINT ( 'NONE',  ( -4.261427950976831800, 4.286542720910017800, -0.08855318738364603700 ) ) ;
#72 = CARTESIAN_POINT ( 'NONE',  ( 4.256580974813880800, -12.85231380956092400, 0.2655084591923762600 ) ) ;
#73 = CARTESIAN_POINT ( 'NONE',  ( -12.69999999999999900, 3.997792089092478900E-015, 0.2592500169847460300 ) ) ;
#74 = CARTESIAN_POINT ( 'NONE',  ( 4.996003610813200500E-016, 2.442490654175340100E-015, 3.000000000000000000 ) ) ;
#75 = EDGE_LOOP ( 'NONE', ( #202, #146 ) ) ;
#76 = APPLICATION_PROTOCOL_DEFINITION ( 'international standard', 'config_control_design', 1994, #93 ) ;
#77 = PERSON_AND_ORGANIZATION_ROLE ( 'classification_officer' ) ;
#78 = EDGE_LOOP ( 'NONE', ( #160, #142, #210, #118, #219 ) ) ;
#79 = VERTEX_POINT ( 'NONE', #203 ) ;
#80 = CC_DESIGN_PERSON_AND_ORGANIZATION_ASSIGNMENT ( #184, #60, ( #22 ) ) ;
#81 = APPROVAL_ROLE ( '' ) ;
#82 =( BOUNDED_SURFACE ( )  B_SPLINE_SURFACE ( 3, 3, ( 
 ( #120, #227, #11, #37 ),
 ( #149, #34, #54, #135 ),
 ( #151, #187, #71, #208 ),
 ( #229, #206, #89, #106 ) ),
 .UNSPECIFIED., .F., .F., .T. ) 
 B_SPLINE_SURFACE_WITH_KNOTS ( ( 4, 4 ),
 ( 4, 4 ),
 ( 0.0000000000000000000, 1.000000000000000000 ),
 ( 0.0000000000000000000, 1.000000000000000000 ),
 .UNSPECIFIED. ) 
 GEOMETRIC_REPRESENTATION_ITEM ( )  RATIONAL_B_SPLINE_SURFACE ( (
 ( 1.000000000000000000, 0.9998594700258655000, 0.9998594700258655000, 1.000000000000000000),
 ( 0.9994312158114988500, 0.9992907657685916600, 0.9992907657685916600, 0.9994312158114988500),
 ( 0.9994312158114988500, 0.9992907657685916600, 0.9992907657685916600, 0.9994312158114988500),
 ( 1.000000000000000000, 0.9998594700258655000, 0.9998594700258655000, 1.000000000000000000) ) ) 
 REPRESENTATION_ITEM ( '' )  SURFACE ( )  );
#83 = ADVANCED_FACE ( 'NONE', ( #23 ), #13, .T. ) ;
#84 = CALENDAR_DATE ( 2018, 21, 12 ) ;
#85 = DIRECTION ( 'NONE',  ( 1.000000000000000000, 0.0000000000000000000, 0.0000000000000000000 ) ) ;
#86 = DIRECTION ( 'NONE',  ( 1.000000000000000000, 0.0000000000000000000, -0.0000000000000000000 ) ) ;
#87 = CARTESIAN_POINT ( 'NONE',  ( 12.77979279394123700, 4.286542720910018600, 0.1738913826710898300 ) ) ;
#88 = PRODUCT_DEFINITION ( 'UNKNOWN', '', #220, #29 ) ;
#89 = CARTESIAN_POINT ( 'NONE',  ( -4.256580974813915400, 12.85231380956100200, 0.2655084591923446100 ) ) ;
#90 = CALENDAR_DATE ( 2018, 21, 12 ) ;
#91 = CARTESIAN_POINT ( 'NONE',  ( 8.521957614413915700, -4.286542720909939600, -0.001059368527941485000 ) ) ;
#92 = LOCAL_TIME ( 8, 47, 41.00000000000000000, #31 ) ;
#93 = APPLICATION_CONTEXT ( 'configuration controlled 3d designs of mechanical parts and assemblies' ) ;
#94 = PERSON_AND_ORGANIZATION_ROLE ( 'creator' ) ;
#95 = DIRECTION ( 'NONE',  ( -0.0000000000000000000, -0.0000000000000000000, -1.000000000000000000 ) ) ;
#96 = PERSON_AND_ORGANIZATION ( #63, #67 ) ;
#97 = DIRECTION ( 'NONE',  ( 0.0000000000000000000, -1.000000000000000000, -3.567554706379037700E-016 ) ) ;
#98 = CARTESIAN_POINT ( 'NONE',  ( 12.69999999999999900, 2.442490654175340100E-015, 3.000000000000000000 ) ) ;
#99 = LINE ( 'NONE', #4, #107 ) ;
#100 = PLANE ( 'NONE',  #58 ) ;
#101 = ADVANCED_FACE ( 'NONE', ( #124 ), #100, .T. ) ;
#102 = CARTESIAN_POINT ( 'NONE',  ( -12.69999999999999900, 3.997792089092478900E-015, 0.2592500169847460300 ) ) ;
#103 = CALENDAR_DATE ( 2018, 21, 12 ) ;
#104 = DIRECTION ( 'NONE',  ( -0.0000000000000000000, -0.0000000000000000000, -1.000000000000000000 ) ) ;
#105 = EDGE_CURVE ( 'NONE', #24, #79, #20, .T. ) ;
#106 = CARTESIAN_POINT ( 'NONE',  ( 1.214306433183765000E-014, 12.85231380956100500, 0.2655084591923435600 ) ) ;
#107 = VECTOR ( 'NONE', #30, 1000.000000000000000 ) ;
#108 = PERSON_AND_ORGANIZATION_ROLE ( 'design_supplier' ) ;
#109 = SECURITY_CLASSIFICATION_LEVEL ( 'unclassified' ) ;
#110 = APPROVAL_STATUS ( 'not_yet_approved' ) ;
#111 = EDGE_CURVE ( 'NONE', #200, #24, #154, .T. ) ;
#112 = APPROVAL_PERSON_ORGANIZATION ( #96, #186, #232 ) ;
#113 = EDGE_CURVE ( 'NONE', #79, #36, #99, .T. ) ;
#114 = EDGE_LOOP ( 'NONE', ( #234, #16, #70 ) ) ;
#115 = ORIENTED_EDGE ( 'NONE', *, *, #163, .T. ) ;
#116 = SHAPE_DEFINITION_REPRESENTATION ( #51, #230 ) ;
#117 = ADVANCED_FACE ( 'NONE', ( #62 ), #174, .T. ) ;
#118 = ORIENTED_EDGE ( 'NONE', *, *, #113, .F. ) ;
#119 = APPROVAL ( #195, 'UNSPECIFIED' ) ;
#120 = CARTESIAN_POINT ( 'NONE',  ( -12.76525697361280200, -12.85231380956092700, 0.5276545230679663400 ) ) ;
#121 = DIRECTION ( 'NONE',  ( 1.000000000000000000, 0.0000000000000000000, 0.0000000000000000000 ) ) ;
#122 = CALENDAR_DATE ( 2018, 21, 12 ) ;
#123 = EDGE_CURVE ( 'NONE', #182, #24, #180, .T. ) ;
#124 = FACE_OUTER_BOUND ( 'NONE', #75, .T. ) ;
#125 = CC_DESIGN_APPROVAL ( #56, ( #144 ) ) ;
#126 = PERSON_AND_ORGANIZATION_ROLE ( 'creator' ) ;
#127 = LOCAL_TIME ( 8, 47, 41.00000000000000000, #171 ) ;
#128 = CIRCLE ( 'NONE', #6, 12.69999999999999900 ) ;
#129 = CC_DESIGN_APPROVAL ( #186, ( #220 ) ) ;
#130 = CC_DESIGN_APPROVAL ( #119, ( #88 ) ) ;
#131 = DIRECTION ( 'NONE',  ( 1.000000000000000000, 0.0000000000000000000, 0.0000000000000000000 ) ) ;
#132 = DIRECTION ( 'NONE',  ( 0.0000000000000000000, 0.0000000000000000000, 1.000000000000000000 ) ) ;
#133 = DIRECTION ( 'NONE',  ( -0.0000000000000000000, -0.0000000000000000000, -1.000000000000000000 ) ) ;
#134 = CIRCLE ( 'NONE', #179, 12.69999999999999900 ) ;
#135 = CARTESIAN_POINT ( 'NONE',  ( 1.040834085586084300E-014, -4.286542720909940500, -0.08855318738364960400 ) ) ;
#136 = EDGE_CURVE ( 'NONE', #182, #188, #205, .T. ) ;
#137 = CARTESIAN_POINT ( 'NONE',  ( 8.512264683806234800, -12.85231380956092400, 0.3529027620033656200 ) ) ;
#138 = DIRECTION ( 'NONE',  ( 1.000000000000000000, 0.0000000000000000000, 0.0000000000000000000 ) ) ;
#139 = FACE_OUTER_BOUND ( 'NONE', #50, .T. ) ;
#140 = CC_DESIGN_PERSON_AND_ORGANIZATION_ASSIGNMENT ( #199, #108, ( #220 ) ) ;
#141 = ORIENTED_EDGE ( 'NONE', *, *, #231, .T. ) ;
#142 = ORIENTED_EDGE ( 'NONE', *, *, #136, .T. ) ;
#143 = LOCAL_TIME ( 8, 47, 41.00000000000000000, #197 ) ;
#144 = SECURITY_CLASSIFICATION ( '', '', #109 ) ;
#145 = PERSON_AND_ORGANIZATION ( #63, #67 ) ;
#146 = ORIENTED_EDGE ( 'NONE', *, *, #183, .F. ) ;
#147 = CARTESIAN_POINT ( 'NONE',  ( 4.996003610813200500E-016, 2.442490654175340100E-015, 0.2592500169847460300 ) ) ;
#148 = CARTESIAN_POINT ( 'NONE',  ( 12.77979279394123700, -4.286542720909940500, 0.1738913826710872800 ) ) ;
#149 = CARTESIAN_POINT ( 'NONE',  ( -12.77979279394153500, -4.286542720909940500, 0.1738913826710698200 ) ) ;
#150 = EDGE_CURVE ( 'NONE', #79, #200, #157, .T. ) ;
#151 = CARTESIAN_POINT ( 'NONE',  ( -12.77979279394153500, 4.286542720910018600, 0.1738913826710723800 ) ) ;
#152 = CARTESIAN_POINT ( 'NONE',  ( 12.76525697361250500, -12.85231380956092700, 0.5276545230679837700 ) ) ;
#153 = CARTESIAN_POINT ( 'NONE',  ( 4.996003610813200500E-016, 2.442490654175340100E-015, 0.2592500169847460300 ) ) ;
#154 = CIRCLE ( 'NONE', #181, 311.1999999999999900 ) ;
#155 = DIRECTION ( 'NONE',  ( 1.000000000000000000, 0.0000000000000000000, 0.0000000000000000000 ) ) ;
#156 =( NAMED_UNIT ( * ) SI_UNIT ( $, .STERADIAN. ) SOLID_ANGLE_UNIT ( ) );
#157 = CIRCLE ( 'NONE', #18, 12.69999999999999900 ) ;
#158 = APPLICATION_PROTOCOL_DEFINITION ( 'international standard', 'config_control_design', 1994, #15 ) ;
#159 = COORDINATED_UNIVERSAL_TIME_OFFSET ( 2, 0, .AHEAD. ) ;
#160 = ORIENTED_EDGE ( 'NONE', *, *, #123, .F. ) ;
#161 =( BOUNDED_SURFACE ( )  B_SPLINE_SURFACE ( 3, 3, ( 
 ( #167, #72, #137, #152 ),
 ( #190, #168, #91, #148 ),
 ( #166, #69, #185, #87 ),
 ( #204, #38, #173, #39 ) ),
 .UNSPECIFIED., .F., .F., .T. ) 
 B_SPLINE_SURFACE_WITH_KNOTS ( ( 4, 4 ),
 ( 4, 4 ),
 ( 0.0000000000000000000, 1.000000000000000000 ),
 ( 0.0000000000000000000, 1.000000000000000000 ),
 .UNSPECIFIED. ) 
 GEOMETRIC_REPRESENTATION_ITEM ( )  RATIONAL_B_SPLINE_SURFACE ( (
 ( 1.000000000000000000, 0.9998594700258655000, 0.9998594700258655000, 1.000000000000000000),
 ( 0.9994312158114988500, 0.9992907657685916600, 0.9992907657685916600, 0.9994312158114988500),
 ( 0.9994312158114988500, 0.9992907657685916600, 0.9992907657685916600, 0.9994312158114988500),
 ( 1.000000000000000000, 0.9998594700258655000, 0.9998594700258655000, 1.000000000000000000) ) ) 
 REPRESENTATION_ITEM ( '' )  SURFACE ( )  );
#162 = PERSON_AND_ORGANIZATION ( #63, #67 ) ;
#163 = EDGE_CURVE ( 'NONE', #200, #182, #128, .T. ) ;
#164 = CIRCLE ( 'NONE', #64, 12.69999999999999900 ) ;
#165 = DIRECTION ( 'NONE',  ( 1.000000000000000000, 0.0000000000000000000, 0.0000000000000000000 ) ) ;
#166 = CARTESIAN_POINT ( 'NONE',  ( 8.526512829121199700E-014, 4.286542720910018600, -0.08855318738361443700 ) ) ;
#167 = CARTESIAN_POINT ( 'NONE',  ( 8.526512829121199700E-014, -12.85231380956092700, 0.2655084591923762000 ) ) ;
#168 = CARTESIAN_POINT ( 'NONE',  ( 4.261427950976795400, -4.286542720909939600, -0.08855318738361699100 ) ) ;
#169 = DATE_AND_TIME ( #103, #45 ) ;
#170 = ADVANCED_FACE ( 'NONE', ( #139 ), #82, .T. ) ;
#171 = COORDINATED_UNIVERSAL_TIME_OFFSET ( 2, 0, .AHEAD. ) ;
#172 = DIRECTION ( 'NONE',  ( 0.0000000000000000000, 0.0000000000000000000, 1.000000000000000000 ) ) ;
#173 = CARTESIAN_POINT ( 'NONE',  ( 8.512264683806234800, 12.85231380956100200, 0.3529027620033657300 ) ) ;
#174 = CYLINDRICAL_SURFACE ( 'NONE', #43, 12.69999999999999900 ) ;
#175 = CC_DESIGN_PERSON_AND_ORGANIZATION_ASSIGNMENT ( #12, #126, ( #220 ) ) ;
#176 = CARTESIAN_POINT ( 'NONE',  ( 0.0000000000000000000, 0.0000000000000000000, 0.0000000000000000000 ) ) ;
#177 = CC_DESIGN_PERSON_AND_ORGANIZATION_ASSIGNMENT ( #162, #94, ( #88 ) ) ;
#178 = FACE_OUTER_BOUND ( 'NONE', #114, .T. ) ;
#179 = AXIS2_PLACEMENT_3D ( 'NONE', #74, #35, #121 ) ;
#180 = CIRCLE ( 'NONE', #196, 12.69999999999999900 ) ;
#181 = AXIS2_PLACEMENT_3D ( 'NONE', #65, #85, #97 ) ;
#182 = VERTEX_POINT ( 'NONE', #73 ) ;
#183 = EDGE_CURVE ( 'NONE', #188, #36, #134, .T. ) ;
#184 = PERSON_AND_ORGANIZATION ( #63, #67 ) ;
#185 = CARTESIAN_POINT ( 'NONE',  ( 8.521957614413915700, 4.286542720910017800, -0.001059368527938937100 ) ) ;
#186 = APPROVAL ( #215, 'UNSPECIFIED' ) ;
#187 = CARTESIAN_POINT ( 'NONE',  ( -8.521957614414082700, 4.286542720910017800, -0.001059368527968183700 ) ) ;
#188 = VERTEX_POINT ( 'NONE', #57 ) ;
#189 = DIRECTION ( 'NONE',  ( 1.000000000000000000, -8.881784197001252300E-016, 0.0000000000000000000 ) ) ;
#190 = CARTESIAN_POINT ( 'NONE',  ( 8.526512829121199700E-014, -4.286542720909940500, -0.08855318738361697700 ) ) ;
#191 = PRODUCT_RELATED_PRODUCT_CATEGORY ( 'detail', '', ( #22 ) ) ;
#192 = MANIFOLD_SOLID_BREP ( 'Imported1', #9 ) ;
#193 = ORIENTED_EDGE ( 'NONE', *, *, #136, .F. ) ;
#194 = APPROVAL_DATE_TIME ( #233, #186 ) ;
#195 = APPROVAL_STATUS ( 'not_yet_approved' ) ;
#196 = AXIS2_PLACEMENT_3D ( 'NONE', #53, #104, #189 ) ;
#197 = COORDINATED_UNIVERSAL_TIME_OFFSET ( 2, 0, .AHEAD. ) ;
#198 = ORIENTED_EDGE ( 'NONE', *, *, #163, .F. ) ;
#199 = PERSON_AND_ORGANIZATION ( #63, #67 ) ;
#200 = VERTEX_POINT ( 'NONE', #55 ) ;
#201 = CC_DESIGN_PERSON_AND_ORGANIZATION_ASSIGNMENT ( #145, #77, ( #144 ) ) ;
#202 = ORIENTED_EDGE ( 'NONE', *, *, #231, .F. ) ;
#203 = CARTESIAN_POINT ( 'NONE',  ( 12.69999999999999900, 2.442490654175340100E-015, 0.2592500169847460300 ) ) ;
#204 = CARTESIAN_POINT ( 'NONE',  ( 8.526512829121199700E-014, 12.85231380956100500, 0.2655084591923762000 ) ) ;
#205 = LINE ( 'NONE', #102, #218 ) ;
#206 = CARTESIAN_POINT ( 'NONE',  ( -8.512264683806401800, 12.85231380956100200, 0.3529027620033364200 ) ) ;
#207 = DIRECTION ( 'NONE',  ( 1.000000000000000000, 0.0000000000000000000, 0.0000000000000000000 ) ) ;
#208 = CARTESIAN_POINT ( 'NONE',  ( 1.040834085586084300E-014, 4.286542720910018600, -0.08855318738364703600 ) ) ;
#209 = CALENDAR_DATE ( 2018, 21, 12 ) ;
#210 = ORIENTED_EDGE ( 'NONE', *, *, #183, .T. ) ;
#211 =( NAMED_UNIT ( * ) PLANE_ANGLE_UNIT ( ) SI_UNIT ( $, .RADIAN. ) );
#212 = APPROVAL_DATE_TIME ( #224, #119 ) ;
#213 = DATE_TIME_ROLE ( 'classification_date' ) ;
#214 = ADVANCED_FACE ( 'NONE', ( #178 ), #161, .T. ) ;
#215 = APPROVAL_STATUS ( 'not_yet_approved' ) ;
#216 = AXIS2_PLACEMENT_3D ( 'NONE', #147, #225, #46 ) ;
#217 = LOCAL_TIME ( 8, 47, 41.00000000000000000, #2 ) ;
#218 = VECTOR ( 'NONE', #226, 1000.000000000000000 ) ;
#219 = ORIENTED_EDGE ( 'NONE', *, *, #105, .F. ) ;
#220 = PRODUCT_DEFINITION_FORMATION_WITH_SPECIFIED_SOURCE ( 'ANY', '', #22, .NOT_KNOWN. ) ;
#221 = DATE_AND_TIME ( #90, #143 ) ;
#222 = APPROVAL_PERSON_ORGANIZATION ( #42, #119, #81 ) ;
#223 = DIRECTION ( 'NONE',  ( 0.0000000000000000000, 0.0000000000000000000, 1.000000000000000000 ) ) ;
#224 = DATE_AND_TIME ( #122, #92 ) ;
#225 = DIRECTION ( 'NONE',  ( -0.0000000000000000000, -0.0000000000000000000, -1.000000000000000000 ) ) ;
#226 = DIRECTION ( 'NONE',  ( 0.0000000000000000000, 0.0000000000000000000, 1.000000000000000000 ) ) ;
#227 = CARTESIAN_POINT ( 'NONE',  ( -8.512264683806401800, -12.85231380956092400, 0.3529027620033364200 ) ) ;
#228 = APPROVAL_DATE_TIME ( #169, #56 ) ;
#229 = CARTESIAN_POINT ( 'NONE',  ( -12.76525697361280200, 12.85231380956100500, 0.5276545230679663400 ) ) ;
#230 = ADVANCED_BREP_SHAPE_REPRESENTATION ( '110-0249E BK7 pl-cx 25.4 F600', ( #192, #41 ), #66 ) ;
#231 = EDGE_CURVE ( 'NONE', #36, #188, #164, .T. ) ;
#232 = APPROVAL_ROLE ( '' ) ;
#233 = DATE_AND_TIME ( #209, #217 ) ;
#234 = ORIENTED_EDGE ( 'NONE', *, *, #150, .T. ) ;
#235 = AXIS2_PLACEMENT_3D ( 'NONE', #52, #223, #131 ) ;
ENDSEC;
END-ISO-10303-21;
