ISO-10303-21;
HEADER;
FILE_DESCRIPTION (( 'STEP AP203' ),
    '1' );
FILE_NAME ('110-0248E BK7 pl-cx 25.4 F550.STEP',
    '2018-12-21T06:47:55',
    ( '' ),
    ( '' ),
    'SwSTEP 2.0',
    'SolidWorks 2017',
    '' );
FILE_SCHEMA (( 'CONFIG_CONTROL_DESIGN' ));
ENDSEC;

DATA;
#1 = DIRECTION ( 'NONE',  ( 1.000000000000000000, 0.0000000000000000000, 0.0000000000000000000 ) ) ;
#2 = CARTESIAN_POINT ( 'NONE',  ( -12.69999999999999900, 3.997792089092478900E-015, 0.2828075361066910200 ) ) ;
#3 = APPROVAL_ROLE ( '' ) ;
#4 = MECHANICAL_CONTEXT ( 'NONE', #78, 'mechanical' ) ;
#5 = VERTEX_POINT ( 'NONE', #47 ) ;
#6 = PRODUCT_DEFINITION_FORMATION_WITH_SPECIFIED_SOURCE ( 'ANY', '', #73, .NOT_KNOWN. ) ;
#7 = AXIS2_PLACEMENT_3D ( 'NONE', #169, #33, #1 ) ;
#8 = SHAPE_DEFINITION_REPRESENTATION ( #82, #107 ) ;
#9 = CARTESIAN_POINT ( 'NONE',  ( 12.78047552060402700, -4.287000566963226500, 0.1896975431251368700 ) ) ;
#10 = LINE ( 'NONE', #92, #116 ) ;
#11 = CARTESIAN_POINT ( 'NONE',  ( 7.762336394824490800E-014, -4.287000566963229200, -0.09661021389763585500 ) ) ;
#12 = APPROVAL ( #103, 'UNSPECIFIED' ) ;
#13 = CARTESIAN_POINT ( 'NONE',  ( 4.261940029284890100, 4.287000566963417500, -0.09661021389763302400 ) ) ;
#14 = PERSON ( 'UNSPECIFIED', 'UNSPECIFIED', 'UNSPECIFIED', ('UNSPECIFIED'), ('UNSPECIFIED'), ('UNSPECIFIED') ) ;
#15 = ORIENTED_EDGE ( 'NONE', *, *, #172, .F. ) ;
#16 = DIRECTION ( 'NONE',  ( 1.000000000000000000, 0.0000000000000000000, 0.0000000000000000000 ) ) ;
#17 = DIRECTION ( 'NONE',  ( 1.000000000000000000, 0.0000000000000000000, 0.0000000000000000000 ) ) ;
#18 = CARTESIAN_POINT ( 'NONE',  ( 4.996003610813200500E-016, 2.442490654175340100E-015, 0.2828075361066910200 ) ) ;
#19 = DIRECTION ( 'NONE',  ( 0.0000000000000000000, 0.0000000000000000000, 1.000000000000000000 ) ) ;
#20 = LOCAL_TIME ( 8, 47, 55.00000000000000000, #224 ) ;
#21 = PERSON_AND_ORGANIZATION_ROLE ( 'design_owner' ) ;
#22 = ORIENTED_EDGE ( 'NONE', *, *, #66, .F. ) ;
#23 = EDGE_CURVE ( 'NONE', #162, #5, #10, .T. ) ;
#24 = CARTESIAN_POINT ( 'NONE',  ( -12.69999999999999900, 3.997792089092478900E-015, 3.000000000000000000 ) ) ;
#25 =( LENGTH_UNIT ( ) NAMED_UNIT ( * ) SI_UNIT ( .MILLI., .METRE. ) );
#26 = CIRCLE ( 'NONE', #71, 12.69999999999999900 ) ;
#27 = EDGE_CURVE ( 'NONE', #96, #87, #65, .T. ) ;
#28 = DATE_AND_TIME ( #181, #149 ) ;
#29 = ORIENTED_EDGE ( 'NONE', *, *, #120, .F. ) ;
#30 = FACE_OUTER_BOUND ( 'NONE', #123, .T. ) ;
#31 = AXIS2_PLACEMENT_3D ( 'NONE', #198, #178, #130 ) ;
#32 = CARTESIAN_POINT ( 'NONE',  ( 1.040834085586084100E-014, -4.287000566963229200, -0.09661021389763188600 ) ) ;
#33 = DIRECTION ( 'NONE',  ( -0.0000000000000000000, -0.0000000000000000000, -1.000000000000000000 ) ) ;
#34 = PERSON_AND_ORGANIZATION ( #14, #215 ) ;
#35 = ORIENTED_EDGE ( 'NONE', *, *, #23, .F. ) ;
#36 = CARTESIAN_POINT ( 'NONE',  ( -4.256172085001480800, -12.85229743727619200, 0.2896344857195082300 ) ) ;
#37 = CARTESIAN_POINT ( 'NONE',  ( 7.417434037208171000E-014, 12.70000000000050900, 0.2828075361067008400 ) ) ;
#38 = APPLICATION_PROTOCOL_DEFINITION ( 'international standard', 'config_control_design', 1994, #119 ) ;
#39 = DIRECTION ( 'NONE',  ( 1.000000000000000000, 0.0000000000000000000, 0.0000000000000000000 ) ) ;
#40 = ADVANCED_FACE ( 'NONE', ( #195 ), #159, .T. ) ;
#41 = ORIENTED_EDGE ( 'NONE', *, *, #125, .T. ) ;
#42 = ADVANCED_FACE ( 'NONE', ( #229 ), #204, .T. ) ;
#43 = DATE_AND_TIME ( #141, #102 ) ;
#44 = ORIENTED_EDGE ( 'NONE', *, *, #66, .T. ) ;
#45 = CARTESIAN_POINT ( 'NONE',  ( 4.996003610813200500E-016, 2.442490654175340100E-015, 0.2828075361066910200 ) ) ;
#46 = LOCAL_TIME ( 8, 47, 55.00000000000000000, #197 ) ;
#47 = CARTESIAN_POINT ( 'NONE',  ( 12.69999999999999900, 2.442490654175340100E-015, 3.000000000000000000 ) ) ;
#48 = DIRECTION ( 'NONE',  ( 1.000000000000000000, 0.0000000000000000000, 0.0000000000000000000 ) ) ;
#49 = CARTESIAN_POINT ( 'NONE',  ( -12.76317892088393800, 12.85229743727637500, 0.5755547649319292500 ) ) ;
#50 = APPROVAL_DATE_TIME ( #234, #145 ) ;
#51 = CARTESIAN_POINT ( 'NONE',  ( -8.522811037862952700, 4.287000566963413900, -0.001158333452136987700 ) ) ;
#52 = CC_DESIGN_SECURITY_CLASSIFICATION ( #193, ( #6 ) ) ;
#53 = DIRECTION ( 'NONE',  ( 1.000000000000000000, -1.776356839400250500E-015, 0.0000000000000000000 ) ) ;
#54 = CC_DESIGN_APPROVAL ( #12, ( #6 ) ) ;
#55 = PRODUCT_RELATED_PRODUCT_CATEGORY ( 'detail', '', ( #73 ) ) ;
#56 = PERSON_AND_ORGANIZATION_ROLE ( 'creator' ) ;
#57 = APPLICATION_PROTOCOL_DEFINITION ( 'international standard', 'config_control_design', 1994, #78 ) ;
#58 = CALENDAR_DATE ( 2018, 21, 12 ) ;
#59 = EDGE_LOOP ( 'NONE', ( #110, #44, #70, #35, #190 ) ) ;
#60 = CARTESIAN_POINT ( 'NONE',  ( 0.0000000000000000000, 26.11199999999999800, 3.000000000000000000 ) ) ;
#61 = ORIENTED_EDGE ( 'NONE', *, *, #91, .F. ) ;
#62 = CC_DESIGN_DATE_AND_TIME_ASSIGNMENT ( #228, #140, ( #193 ) ) ;
#63 = ORIENTED_EDGE ( 'NONE', *, *, #91, .T. ) ;
#64 = CARTESIAN_POINT ( 'NONE',  ( 7.587679357691671600E-014, 4.287000566963416600, -0.09661021389763291300 ) ) ;
#65 = CIRCLE ( 'NONE', #31, 285.3000000000000100 ) ;
#66 = EDGE_CURVE ( 'NONE', #212, #225, #133, .T. ) ;
#67 = CARTESIAN_POINT ( 'NONE',  ( 12.78047552060402500, 4.287000566963419200, 0.1896975431251397600 ) ) ;
#68 = CARTESIAN_POINT ( 'NONE',  ( 4.261940029284891900, -4.287000566963228300, -0.09661021389763595200 ) ) ;
#69 = PERSON_AND_ORGANIZATION ( #14, #215 ) ;
#70 = ORIENTED_EDGE ( 'NONE', *, *, #120, .T. ) ;
#71 = AXIS2_PLACEMENT_3D ( 'NONE', #97, #165, #16 ) ;
#72 = CARTESIAN_POINT ( 'NONE',  ( 7.934845765277546100E-014, -12.70000000000036300, 0.2828075361067008400 ) ) ;
#73 = PRODUCT ( '110-0248E BK7 pl-cx 25.4 F550', '110-0248E BK7 pl-cx 25.4 F550', '', ( #4 ) ) ;
#74 = AXIS2_PLACEMENT_3D ( 'NONE', #183, #218, #132 ) ;
#75 = CARTESIAN_POINT ( 'NONE',  ( 4.996003610813200500E-016, 2.442490654175340100E-015, 0.2828075361066910200 ) ) ;
#76 = ORIENTED_EDGE ( 'NONE', *, *, #23, .T. ) ;
#77 = CARTESIAN_POINT ( 'NONE',  ( 5.204170427930421300E-015, 12.85229743727637700, 0.2896344857195069500 ) ) ;
#78 = APPLICATION_CONTEXT ( 'configuration controlled 3d designs of mechanical parts and assemblies' ) ;
#79 = APPROVAL_DATE_TIME ( #28, #136 ) ;
#80 = PERSON_AND_ORGANIZATION_ROLE ( 'design_supplier' ) ;
#81 = CIRCLE ( 'NONE', #7, 12.69999999999999900 ) ;
#82 = PRODUCT_DEFINITION_SHAPE ( 'NONE', 'NONE',  #153 ) ;
#83 = CALENDAR_DATE ( 2018, 21, 12 ) ;
#84 = FACE_OUTER_BOUND ( 'NONE', #160, .T. ) ;
#85 =( GEOMETRIC_REPRESENTATION_CONTEXT ( 3 ) GLOBAL_UNCERTAINTY_ASSIGNED_CONTEXT ( ( #201 ) ) GLOBAL_UNIT_ASSIGNED_CONTEXT ( ( #25, #121, #124 ) ) REPRESENTATION_CONTEXT ( 'NONE', 'WORKASPACE' ) );
#86 = PERSON_AND_ORGANIZATION ( #14, #215 ) ;
#87 = VERTEX_POINT ( 'NONE', #37 ) ;
#88 = AXIS2_PLACEMENT_3D ( 'NONE', #60, #19, #187 ) ;
#89 = CARTESIAN_POINT ( 'NONE',  ( 8.522811037862796400, -4.287000566963227400, -0.001158333452139237200 ) ) ;
#90 = APPROVAL_DATE_TIME ( #106, #12 ) ;
#91 = EDGE_CURVE ( 'NONE', #5, #225, #81, .T. ) ;
#92 = CARTESIAN_POINT ( 'NONE',  ( 12.69999999999999900, 2.442490654175340100E-015, 0.2828075361066910200 ) ) ;
#93 = CARTESIAN_POINT ( 'NONE',  ( 12.69999999999999900, 2.442490654175340100E-015, 0.2828075361066910200 ) ) ;
#94 = CARTESIAN_POINT ( 'NONE',  ( -4.261940029284929200, 4.287000566963415700, -0.09661021389762802800 ) ) ;
#95 = APPROVAL_PERSON_ORGANIZATION ( #34, #145, #157 ) ;
#96 = VERTEX_POINT ( 'NONE', #72 ) ;
#97 = CARTESIAN_POINT ( 'NONE',  ( 4.996003610813200500E-016, 2.442490654175340100E-015, 0.2828075361066910200 ) ) ;
#98 = CARTESIAN_POINT ( 'NONE',  ( -12.76317892088393100, -12.85229743727619400, 0.5755547649319292500 ) ) ;
#99 =( BOUNDED_SURFACE ( )  B_SPLINE_SURFACE ( 3, 3, ( 
 ( #98, #203, #36, #118 ),
 ( #148, #180, #151, #32 ),
 ( #168, #51, #94, #219 ),
 ( #49, #185, #179, #77 ) ),
 .UNSPECIFIED., .F., .F., .F. ) 
 B_SPLINE_SURFACE_WITH_KNOTS ( ( 4, 4 ),
 ( 4, 4 ),
 ( 0.0000000000000000000, 1.000000000000000000 ),
 ( 0.0000000000000000000, 1.000000000000000000 ),
 .UNSPECIFIED. ) 
 GEOMETRIC_REPRESENTATION_ITEM ( )  RATIONAL_B_SPLINE_SURFACE ( (
 ( 1.000000000000000000, 0.9998327802675827100, 0.9998327802675827100, 1.000000000000000000),
 ( 0.9993232048470159800, 0.9991560982881030300, 0.9991560982881030300, 0.9993232048470159800),
 ( 0.9993232048470159800, 0.9991560982881030300, 0.9991560982881030300, 0.9993232048470159800),
 ( 1.000000000000000000, 0.9998327802675827100, 0.9998327802675827100, 1.000000000000000000) ) ) 
 REPRESENTATION_ITEM ( '' )  SURFACE ( )  );
#100 = COORDINATED_UNIVERSAL_TIME_OFFSET ( 2, 0, .AHEAD. ) ;
#101 = DATE_TIME_ROLE ( 'creation_date' ) ;
#102 = LOCAL_TIME ( 8, 47, 55.00000000000000000, #200 ) ;
#103 = APPROVAL_STATUS ( 'not_yet_approved' ) ;
#104 = ORIENTED_EDGE ( 'NONE', *, *, #155, .T. ) ;
#105 = AXIS2_PLACEMENT_3D ( 'NONE', #75, #114, #17 ) ;
#106 = DATE_AND_TIME ( #58, #163 ) ;
#107 = ADVANCED_BREP_SHAPE_REPRESENTATION ( '110-0248E BK7 pl-cx 25.4 F550', ( #196, #143 ), #85 ) ;
#108 = AXIS2_PLACEMENT_3D ( 'NONE', #45, #174, #48 ) ;
#109 = PERSON_AND_ORGANIZATION ( #14, #215 ) ;
#110 = ORIENTED_EDGE ( 'NONE', *, *, #155, .F. ) ;
#111 = CARTESIAN_POINT ( 'NONE',  ( 4.256172085001446200, 12.85229743727637900, 0.2896344857195031200 ) ) ;
#112 = CARTESIAN_POINT ( 'NONE',  ( 8.522811037862792800, 4.287000566963418400, -0.001158333452136309800 ) ) ;
#113 = CC_DESIGN_PERSON_AND_ORGANIZATION_ASSIGNMENT ( #86, #21, ( #73 ) ) ;
#114 = DIRECTION ( 'NONE',  ( 0.0000000000000000000, 0.0000000000000000000, 1.000000000000000000 ) ) ;
#115 = PERSON_AND_ORGANIZATION ( #14, #215 ) ;
#116 = VECTOR ( 'NONE', #177, 1000.000000000000000 ) ;
#117 = AXIS2_PLACEMENT_3D ( 'NONE', #18, #186, #154 ) ;
#118 = CARTESIAN_POINT ( 'NONE',  ( 1.214306433183765000E-014, -12.85229743727619200, 0.2896344857195070600 ) ) ;
#119 = APPLICATION_CONTEXT ( 'configuration controlled 3d designs of mechanical parts and assemblies' ) ;
#120 = EDGE_CURVE ( 'NONE', #225, #5, #182, .T. ) ;
#121 =( NAMED_UNIT ( * ) PLANE_ANGLE_UNIT ( ) SI_UNIT ( $, .RADIAN. ) );
#122 = CALENDAR_DATE ( 2018, 21, 12 ) ;
#123 = EDGE_LOOP ( 'NONE', ( #61, #29 ) ) ;
#124 =( NAMED_UNIT ( * ) SI_UNIT ( $, .STERADIAN. ) SOLID_ANGLE_UNIT ( ) );
#125 = EDGE_CURVE ( 'NONE', #87, #162, #176, .T. ) ;
#126 = CARTESIAN_POINT ( 'NONE',  ( 12.76317892088365400, 12.85229743727638100, 0.5755547649319177100 ) ) ;
#127 = ORIENTED_EDGE ( 'NONE', *, *, #172, .T. ) ;
#128 = CARTESIAN_POINT ( 'NONE',  ( 4.256172085001452400, -12.85229743727619000, 0.2896344857195031200 ) ) ;
#129 = CARTESIAN_POINT ( 'NONE',  ( 12.76317892088365900, -12.85229743727619000, 0.5755547649319177100 ) ) ;
#130 = DIRECTION ( 'NONE',  ( 2.037054047517149800E-016, -1.000000000000000000, -7.782846299510385100E-016 ) ) ;
#131 = DIRECTION ( 'NONE',  ( -0.0000000000000000000, -0.0000000000000000000, -1.000000000000000000 ) ) ;
#132 = DIRECTION ( 'NONE',  ( 1.000000000000000000, 8.881784197001252300E-016, 0.0000000000000000000 ) ) ;
#133 = LINE ( 'NONE', #152, #144 ) ;
#134 = CC_DESIGN_APPROVAL ( #145, ( #193 ) ) ;
#135 = DIRECTION ( 'NONE',  ( 1.000000000000000000, 0.0000000000000000000, 0.0000000000000000000 ) ) ;
#136 = APPROVAL ( #209, 'UNSPECIFIED' ) ;
#137 = PERSON_AND_ORGANIZATION ( #14, #215 ) ;
#138 = PERSON_AND_ORGANIZATION_ROLE ( 'creator' ) ;
#139 = FACE_OUTER_BOUND ( 'NONE', #223, .T. ) ;
#140 = DATE_TIME_ROLE ( 'classification_date' ) ;
#141 = CALENDAR_DATE ( 2018, 21, 12 ) ;
#142 = ORIENTED_EDGE ( 'NONE', *, *, #206, .T. ) ;
#143 = AXIS2_PLACEMENT_3D ( 'NONE', #189, #205, #39 ) ;
#144 = VECTOR ( 'NONE', #221, 1000.000000000000000 ) ;
#145 = APPROVAL ( #170, 'UNSPECIFIED' ) ;
#146 = CARTESIAN_POINT ( 'NONE',  ( 7.414352024880130000E-014, 12.85229743727637900, 0.2896344857195032300 ) ) ;
#147 = CC_DESIGN_PERSON_AND_ORGANIZATION_ASSIGNMENT ( #137, #138, ( #6 ) ) ;
#148 = CARTESIAN_POINT ( 'NONE',  ( -12.78047552060430200, -4.287000566963232700, 0.1896975431251483900 ) ) ;
#149 = LOCAL_TIME ( 8, 47, 55.00000000000000000, #217 ) ;
#150 = EDGE_LOOP ( 'NONE', ( #142, #208, #41 ) ) ;
#151 = CARTESIAN_POINT ( 'NONE',  ( -4.261940029284925700, -4.287000566963230100, -0.09661021389763073400 ) ) ;
#152 = CARTESIAN_POINT ( 'NONE',  ( -12.69999999999999900, 3.997792089092478900E-015, 0.2828075361066910200 ) ) ;
#153 = PRODUCT_DEFINITION ( 'UNKNOWN', '', #6, #173 ) ;
#154 = DIRECTION ( 'NONE',  ( 1.000000000000000000, 0.0000000000000000000, 0.0000000000000000000 ) ) ;
#155 = EDGE_CURVE ( 'NONE', #212, #87, #220, .T. ) ;
#156 = APPROVAL_PERSON_ORGANIZATION ( #115, #12, #207 ) ;
#157 = APPROVAL_ROLE ( '' ) ;
#158 = PERSON_AND_ORGANIZATION_ROLE ( 'classification_officer' ) ;
#159 =( BOUNDED_SURFACE ( )  B_SPLINE_SURFACE ( 3, 3, ( 
 ( #232, #128, #233, #129 ),
 ( #11, #68, #89, #9 ),
 ( #64, #13, #112, #67 ),
 ( #146, #111, #230, #126 ) ),
 .UNSPECIFIED., .F., .F., .T. ) 
 B_SPLINE_SURFACE_WITH_KNOTS ( ( 4, 4 ),
 ( 4, 4 ),
 ( 0.0000000000000000000, 1.000000000000000000 ),
 ( 0.0000000000000000000, 1.000000000000000000 ),
 .UNSPECIFIED. ) 
 GEOMETRIC_REPRESENTATION_ITEM ( )  RATIONAL_B_SPLINE_SURFACE ( (
 ( 1.000000000000000000, 0.9998327802675827100, 0.9998327802675827100, 1.000000000000000000),
 ( 0.9993232048470159800, 0.9991560982881030300, 0.9991560982881030300, 0.9993232048470159800),
 ( 0.9993232048470159800, 0.9991560982881030300, 0.9991560982881030300, 0.9993232048470159800),
 ( 1.000000000000000000, 0.9998327802675827100, 0.9998327802675827100, 1.000000000000000000) ) ) 
 REPRESENTATION_ITEM ( '' )  SURFACE ( )  );
#160 = EDGE_LOOP ( 'NONE', ( #164, #127, #104 ) ) ;
#161 = CC_DESIGN_APPROVAL ( #136, ( #153 ) ) ;
#162 = VERTEX_POINT ( 'NONE', #93 ) ;
#163 = LOCAL_TIME ( 8, 47, 55.00000000000000000, #100 ) ;
#164 = ORIENTED_EDGE ( 'NONE', *, *, #27, .F. ) ;
#165 = DIRECTION ( 'NONE',  ( -0.0000000000000000000, -0.0000000000000000000, -1.000000000000000000 ) ) ;
#166 = DIRECTION ( 'NONE',  ( -0.0000000000000000000, -0.0000000000000000000, -1.000000000000000000 ) ) ;
#167 = CYLINDRICAL_SURFACE ( 'NONE', #105, 12.69999999999999900 ) ;
#168 = CARTESIAN_POINT ( 'NONE',  ( -12.78047552060430400, 4.287000566963413000, 0.1896975431251512500 ) ) ;
#169 = CARTESIAN_POINT ( 'NONE',  ( 4.996003610813200500E-016, 2.442490654175340100E-015, 3.000000000000000000 ) ) ;
#170 = APPROVAL_STATUS ( 'not_yet_approved' ) ;
#171 = CIRCLE ( 'NONE', #117, 12.69999999999999900 ) ;
#172 = EDGE_CURVE ( 'NONE', #96, #212, #171, .T. ) ;
#173 = DESIGN_CONTEXT ( 'detailed design', #119, 'design' ) ;
#174 = DIRECTION ( 'NONE',  ( 0.0000000000000000000, 0.0000000000000000000, 1.000000000000000000 ) ) ;
#175 = CC_DESIGN_PERSON_AND_ORGANIZATION_ASSIGNMENT ( #109, #80, ( #6 ) ) ;
#176 = CIRCLE ( 'NONE', #216, 12.69999999999999900 ) ;
#177 = DIRECTION ( 'NONE',  ( 0.0000000000000000000, 0.0000000000000000000, 1.000000000000000000 ) ) ;
#178 = DIRECTION ( 'NONE',  ( 1.000000000000000000, 2.037054047517150000E-016, -2.983584676163240200E-017 ) ) ;
#179 = CARTESIAN_POINT ( 'NONE',  ( -4.256172085001487900, 12.85229743727637700, 0.2896344857195081200 ) ) ;
#180 = CARTESIAN_POINT ( 'NONE',  ( -8.522811037862949100, -4.287000566963231800, -0.001158333452139833500 ) ) ;
#181 = CALENDAR_DATE ( 2018, 21, 12 ) ;
#182 = CIRCLE ( 'NONE', #211, 12.69999999999999900 ) ;
#183 = CARTESIAN_POINT ( 'NONE',  ( 4.996003610813200500E-016, 2.442490654175340100E-015, 0.2828075361066910200 ) ) ;
#184 = CC_DESIGN_PERSON_AND_ORGANIZATION_ASSIGNMENT ( #69, #56, ( #153 ) ) ;
#185 = CARTESIAN_POINT ( 'NONE',  ( -8.511276596067217400, 12.85229743727637700, 0.3849571852932890400 ) ) ;
#186 = DIRECTION ( 'NONE',  ( -0.0000000000000000000, -0.0000000000000000000, -1.000000000000000000 ) ) ;
#187 = DIRECTION ( 'NONE',  ( 1.000000000000000000, 0.0000000000000000000, -0.0000000000000000000 ) ) ;
#188 = SECURITY_CLASSIFICATION_LEVEL ( 'unclassified' ) ;
#189 = CARTESIAN_POINT ( 'NONE',  ( 0.0000000000000000000, 0.0000000000000000000, 0.0000000000000000000 ) ) ;
#190 = ORIENTED_EDGE ( 'NONE', *, *, #125, .F. ) ;
#191 = ADVANCED_FACE ( 'NONE', ( #139 ), #167, .T. ) ;
#192 = PERSON_AND_ORGANIZATION ( #14, #215 ) ;
#193 = SECURITY_CLASSIFICATION ( '', '', #188 ) ;
#194 = PERSON_AND_ORGANIZATION ( #14, #215 ) ;
#195 = FACE_OUTER_BOUND ( 'NONE', #150, .T. ) ;
#196 = MANIFOLD_SOLID_BREP ( 'Imported1', #235 ) ;
#197 = COORDINATED_UNIVERSAL_TIME_OFFSET ( 2, 0, .AHEAD. ) ;
#198 = CARTESIAN_POINT ( 'NONE',  ( 8.526512829121199700E-014, 1.421085471520200100E-013, 285.3000000000000100 ) ) ;
#199 = CARTESIAN_POINT ( 'NONE',  ( 4.996003610813200500E-016, 2.442490654175340100E-015, 0.2828075361066910200 ) ) ;
#200 = COORDINATED_UNIVERSAL_TIME_OFFSET ( 2, 0, .AHEAD. ) ;
#201 = UNCERTAINTY_MEASURE_WITH_UNIT (LENGTH_MEASURE( 1.000000000000000100E-005 ), #25, 'distance_accuracy_value', 'NONE');
#202 = CARTESIAN_POINT ( 'NONE',  ( 4.996003610813200500E-016, 2.442490654175340100E-015, 3.000000000000000000 ) ) ;
#203 = CARTESIAN_POINT ( 'NONE',  ( -8.511276596067212100, -12.85229743727619200, 0.3849571852932890900 ) ) ;
#204 = CYLINDRICAL_SURFACE ( 'NONE', #108, 12.69999999999999900 ) ;
#205 = DIRECTION ( 'NONE',  ( 0.0000000000000000000, 0.0000000000000000000, 1.000000000000000000 ) ) ;
#206 = EDGE_CURVE ( 'NONE', #162, #96, #26, .T. ) ;
#207 = APPROVAL_ROLE ( '' ) ;
#208 = ORIENTED_EDGE ( 'NONE', *, *, #27, .T. ) ;
#209 = APPROVAL_STATUS ( 'not_yet_approved' ) ;
#210 = ADVANCED_FACE ( 'NONE', ( #84 ), #99, .T. ) ;
#211 = AXIS2_PLACEMENT_3D ( 'NONE', #202, #166, #135 ) ;
#212 = VERTEX_POINT ( 'NONE', #2 ) ;
#213 = APPROVAL_PERSON_ORGANIZATION ( #194, #136, #3 ) ;
#214 = ORIENTED_EDGE ( 'NONE', *, *, #206, .F. ) ;
#215 = ORGANIZATION ( 'UNSPECIFIED', 'UNSPECIFIED', '' ) ;
#216 = AXIS2_PLACEMENT_3D ( 'NONE', #199, #131, #53 ) ;
#217 = COORDINATED_UNIVERSAL_TIME_OFFSET ( 2, 0, .AHEAD. ) ;
#218 = DIRECTION ( 'NONE',  ( -0.0000000000000000000, -0.0000000000000000000, -1.000000000000000000 ) ) ;
#219 = CARTESIAN_POINT ( 'NONE',  ( 6.938893903907228400E-015, 4.287000566963416600, -0.09661021389762916600 ) ) ;
#220 = CIRCLE ( 'NONE', #74, 12.69999999999999900 ) ;
#221 = DIRECTION ( 'NONE',  ( 0.0000000000000000000, 0.0000000000000000000, 1.000000000000000000 ) ) ;
#222 = PLANE ( 'NONE',  #88 ) ;
#223 = EDGE_LOOP ( 'NONE', ( #22, #15, #214, #76, #63 ) ) ;
#224 = COORDINATED_UNIVERSAL_TIME_OFFSET ( 2, 0, .AHEAD. ) ;
#225 = VERTEX_POINT ( 'NONE', #24 ) ;
#226 = ADVANCED_FACE ( 'NONE', ( #30 ), #222, .T. ) ;
#227 = CC_DESIGN_PERSON_AND_ORGANIZATION_ASSIGNMENT ( #192, #158, ( #193 ) ) ;
#228 = DATE_AND_TIME ( #122, #46 ) ;
#229 = FACE_OUTER_BOUND ( 'NONE', #59, .T. ) ;
#230 = CARTESIAN_POINT ( 'NONE',  ( 8.511276596067054000, 12.85229743727638100, 0.3849571852932896500 ) ) ;
#231 = CC_DESIGN_DATE_AND_TIME_ASSIGNMENT ( #43, #101, ( #153 ) ) ;
#232 = CARTESIAN_POINT ( 'NONE',  ( 7.937968515170089100E-014, -12.85229743727619000, 0.2896344857195032300 ) ) ;
#233 = CARTESIAN_POINT ( 'NONE',  ( 8.511276596067061100, -12.85229743727618900, 0.3849571852932896500 ) ) ;
#234 = DATE_AND_TIME ( #83, #20 ) ;
#235 = CLOSED_SHELL ( 'NONE', ( #40, #42, #210, #191, #226 ) ) ;
ENDSEC;
END-ISO-10303-21;
