ISO-10303-21;
HEADER;
FILE_DESCRIPTION (( 'STEP AP203' ),
    '1' );
FILE_NAME ('110-0247E BK7 pl-cx 25.4 F500.STEP',
    '2018-12-21T06:48:10',
    ( '' ),
    ( '' ),
    'SwSTEP 2.0',
    'SolidWorks 2017',
    '' );
FILE_SCHEMA (( 'CONFIG_CONTROL_DESIGN' ));
ENDSEC;

DATA;
#1 = CARTESIAN_POINT ( 'NONE',  ( -4.262613345891416800, -4.287602561648497200, -0.1062824040680994700 ) ) ;
#2 = CARTESIAN_POINT ( 'NONE',  ( 12.76044729496895900, -12.85227591330464300, 0.6330199026919939300 ) ) ;
#3 = DESIGN_CONTEXT ( 'detailed design', #45, 'design' ) ;
#4 = LOCAL_TIME ( 8, 48, 10.00000000000000000, #61 ) ;
#5 = CC_DESIGN_APPROVAL ( #93, ( #223 ) ) ;
#6 = FACE_OUTER_BOUND ( 'NONE', #91, .T. ) ;
#7 = APPLICATION_PROTOCOL_DEFINITION ( 'international standard', 'config_control_design', 1994, #45 ) ;
#8 = APPROVAL_ROLE ( '' ) ;
#9 = CALENDAR_DATE ( 2018, 21, 12 ) ;
#10 = ORIENTED_EDGE ( 'NONE', *, *, #126, .T. ) ;
#11 = CARTESIAN_POINT ( 'NONE',  ( 4.996003610813200500E-016, 2.442490654175340100E-015, 0.3110770411054419900 ) ) ;
#12 = DIRECTION ( 'NONE',  ( 1.000000000000000000, 0.0000000000000000000, 0.0000000000000000000 ) ) ;
#13 = APPROVAL ( #62, 'UNSPECIFIED' ) ;
#14 = PLANE ( 'NONE',  #207 ) ;
#15 = CARTESIAN_POINT ( 'NONE',  ( -12.78137319883063200, -4.287602561648498100, 0.2086669922542199700 ) ) ;
#16 = AXIS2_PLACEMENT_3D ( 'NONE', #87, #67, #163 ) ;
#17 = ADVANCED_FACE ( 'NONE', ( #165 ), #14, .T. ) ;
#18 = PERSON_AND_ORGANIZATION ( #133, #175 ) ;
#19 = CARTESIAN_POINT ( 'NONE',  ( -4.255634515394234500, 12.85227591330460800, 0.3185861474268727500 ) ) ;
#20 = CIRCLE ( 'NONE', #231, 12.69999999999999900 ) ;
#21 = CARTESIAN_POINT ( 'NONE',  ( 4.996003610813200500E-016, 2.442490654175340100E-015, 3.000000000000000000 ) ) ;
#22 = DIRECTION ( 'NONE',  ( -0.0000000000000000000, -0.0000000000000000000, -1.000000000000000000 ) ) ;
#23 = CYLINDRICAL_SURFACE ( 'NONE', #212, 12.69999999999999900 ) ;
#24 = PERSON_AND_ORGANIZATION ( #133, #175 ) ;
#25 = ORIENTED_EDGE ( 'NONE', *, *, #170, .T. ) ;
#26 = APPROVAL_PERSON_ORGANIZATION ( #122, #142, #159 ) ;
#27 = PERSON_AND_ORGANIZATION_ROLE ( 'design_owner' ) ;
#28 = CC_DESIGN_PERSON_AND_ORGANIZATION_ASSIGNMENT ( #24, #178, ( #223 ) ) ;
#29 = DIRECTION ( 'NONE',  ( 0.0000000000000000000, 0.0000000000000000000, 1.000000000000000000 ) ) ;
#30 = LOCAL_TIME ( 8, 48, 10.00000000000000000, #75 ) ;
#31 = PERSON_AND_ORGANIZATION_ROLE ( 'creator' ) ;
#32 = VERTEX_POINT ( 'NONE', #117 ) ;
#33 = APPLICATION_CONTEXT ( 'configuration controlled 3d designs of mechanical parts and assemblies' ) ;
#34 = ORIENTED_EDGE ( 'NONE', *, *, #228, .T. ) ;
#35 = DIRECTION ( 'NONE',  ( 0.0000000000000000000, 0.0000000000000000000, 1.000000000000000000 ) ) ;
#36 = CARTESIAN_POINT ( 'NONE',  ( -4.262613345891416800, 4.287602561648460800, -0.1062824040681001200 ) ) ;
#37 = ADVANCED_FACE ( 'NONE', ( #6 ), #49, .T. ) ;
#38 = CARTESIAN_POINT ( 'NONE',  ( 4.996003610813200500E-016, 2.442490654175340100E-015, 0.3110770411054419900 ) ) ;
#39 = EDGE_CURVE ( 'NONE', #32, #172, #235, .T. ) ;
#40 = ORIENTED_EDGE ( 'NONE', *, *, #187, .F. ) ;
#41 = CARTESIAN_POINT ( 'NONE',  ( -1.474514954580286000E-013, -4.287602561648498100, -0.1062824040681014400 ) ) ;
#42 = FACE_OUTER_BOUND ( 'NONE', #70, .T. ) ;
#43 = CARTESIAN_POINT ( 'NONE',  ( -8.718298976328990800E-014, 4.287602561648461700, -0.1062824040681148600 ) ) ;
#44 = DATE_AND_TIME ( #200, #59 ) ;
#45 = APPLICATION_CONTEXT ( 'configuration controlled 3d designs of mechanical parts and assemblies' ) ;
#46 = PERSON_AND_ORGANIZATION_ROLE ( 'creator' ) ;
#47 = DATE_TIME_ROLE ( 'classification_date' ) ;
#48 = DATE_TIME_ROLE ( 'creation_date' ) ;
#49 = CYLINDRICAL_SURFACE ( 'NONE', #180, 12.69999999999999900 ) ;
#50 = AXIS2_PLACEMENT_3D ( 'NONE', #123, #53, #56 ) ;
#51 = ORIENTED_EDGE ( 'NONE', *, *, #187, .T. ) ;
#52 = DIRECTION ( 'NONE',  ( 1.000000000000000000, 0.0000000000000000000, 0.0000000000000000000 ) ) ;
#53 = DIRECTION ( 'NONE',  ( -0.0000000000000000000, -0.0000000000000000000, -1.000000000000000000 ) ) ;
#54 = CARTESIAN_POINT ( 'NONE',  ( -8.523933167001770200, -4.287602561648497200, -0.001278029004726826100 ) ) ;
#55 = CARTESIAN_POINT ( 'NONE',  ( -12.76044729496889700, -12.85227591330464300, 0.6330199026919891600 ) ) ;
#56 = DIRECTION ( 'NONE',  ( 1.000000000000000000, 0.0000000000000000000, 0.0000000000000000000 ) ) ;
#57 = CARTESIAN_POINT ( 'NONE',  ( -8.708848501708403800E-014, 12.69999999999987800, 0.3110770411054437100 ) ) ;
#58 = APPROVAL_PERSON_ORGANIZATION ( #151, #13, #191 ) ;
#59 = LOCAL_TIME ( 8, 48, 10.00000000000000000, #164 ) ;
#60 = ORIENTED_EDGE ( 'NONE', *, *, #109, .F. ) ;
#61 = COORDINATED_UNIVERSAL_TIME_OFFSET ( 2, 0, .AHEAD. ) ;
#62 = APPROVAL_STATUS ( 'not_yet_approved' ) ;
#63 =( LENGTH_UNIT ( ) NAMED_UNIT ( * ) SI_UNIT ( .MILLI., .METRE. ) );
#64 = SECURITY_CLASSIFICATION_LEVEL ( 'unclassified' ) ;
#65 = EDGE_CURVE ( 'NONE', #172, #98, #89, .T. ) ;
#66 = DATE_AND_TIME ( #217, #30 ) ;
#67 = DIRECTION ( 'NONE',  ( -0.0000000000000000000, -0.0000000000000000000, -1.000000000000000000 ) ) ;
#68 = PERSON_AND_ORGANIZATION ( #133, #175 ) ;
#69 = CARTESIAN_POINT ( 'NONE',  ( -1.474514954580286000E-013, 4.287602561648461700, -0.1062824040681020800 ) ) ;
#70 = EDGE_LOOP ( 'NONE', ( #149, #145, #10 ) ) ;
#71 = CIRCLE ( 'NONE', #50, 12.69999999999999900 ) ;
#72 = CARTESIAN_POINT ( 'NONE',  ( 4.255634515394101300, -12.85227591330464300, 0.3185861474268570400 ) ) ;
#73 = CARTESIAN_POINT ( 'NONE',  ( -1.474514954580286000E-013, 12.85227591330460800, 0.3185861474268708600 ) ) ;
#74 = CC_DESIGN_PERSON_AND_ORGANIZATION_ASSIGNMENT ( #210, #195, ( #77 ) ) ;
#75 = COORDINATED_UNIVERSAL_TIME_OFFSET ( 2, 0, .AHEAD. ) ;
#76 = VECTOR ( 'NONE', #83, 1000.000000000000000 ) ;
#77 = SECURITY_CLASSIFICATION ( '', '', #64 ) ;
#78 = AXIS2_PLACEMENT_3D ( 'NONE', #127, #219, #52 ) ;
#79 = VECTOR ( 'NONE', #35, 1000.000000000000000 ) ;
#80 = CARTESIAN_POINT ( 'NONE',  ( 0.0000000000000000000, 0.0000000000000000000, 0.0000000000000000000 ) ) ;
#81 = ORIENTED_EDGE ( 'NONE', *, *, #39, .F. ) ;
#82 = CARTESIAN_POINT ( 'NONE',  ( 0.0000000000000000000, 26.11199999999999800, 3.000000000000000000 ) ) ;
#83 = DIRECTION ( 'NONE',  ( 0.0000000000000000000, 0.0000000000000000000, 1.000000000000000000 ) ) ;
#84 = CIRCLE ( 'NONE', #96, 259.3999999999999800 ) ;
#85 = CC_DESIGN_SECURITY_CLASSIFICATION ( #77, ( #223 ) ) ;
#86 = ORIENTED_EDGE ( 'NONE', *, *, #185, .F. ) ;
#87 = CARTESIAN_POINT ( 'NONE',  ( 4.996003610813200500E-016, 2.442490654175340100E-015, 0.3110770411054419900 ) ) ;
#88 = EDGE_CURVE ( 'NONE', #181, #32, #226, .T. ) ;
#89 = LINE ( 'NONE', #196, #79 ) ;
#90 = PERSON_AND_ORGANIZATION ( #133, #175 ) ;
#91 = EDGE_LOOP ( 'NONE', ( #188, #81, #211, #229, #25 ) ) ;
#92 =( GEOMETRIC_REPRESENTATION_CONTEXT ( 3 ) GLOBAL_UNCERTAINTY_ASSIGNED_CONTEXT ( ( #189 ) ) GLOBAL_UNIT_ASSIGNED_CONTEXT ( ( #63, #208, #99 ) ) REPRESENTATION_CONTEXT ( 'NONE', 'WORKASPACE' ) );
#93 = APPROVAL ( #174, 'UNSPECIFIED' ) ;
#94 = CARTESIAN_POINT ( 'NONE',  ( 12.78137319883069400, -4.287602561648498100, 0.2086669922542247500 ) ) ;
#95 = PRODUCT_DEFINITION_SHAPE ( 'NONE', 'NONE',  #198 ) ;
#96 = AXIS2_PLACEMENT_3D ( 'NONE', #179, #139, #154 ) ;
#97 = LOCAL_TIME ( 8, 48, 10.00000000000000000, #204 ) ;
#98 = VERTEX_POINT ( 'NONE', #182 ) ;
#99 =( NAMED_UNIT ( * ) SI_UNIT ( $, .STERADIAN. ) SOLID_ANGLE_UNIT ( ) );
#100 = FACE_OUTER_BOUND ( 'NONE', #177, .T. ) ;
#101 = ADVANCED_BREP_SHAPE_REPRESENTATION ( '110-0247E BK7 pl-cx 25.4 F500', ( #162, #134 ), #92 ) ;
#102 = DIRECTION ( 'NONE',  ( 1.000000000000000000, 0.0000000000000000000, -0.0000000000000000000 ) ) ;
#103 = DATE_AND_TIME ( #9, #97 ) ;
#104 = DIRECTION ( 'NONE',  ( 1.000000000000000000, 0.0000000000000000000, 0.0000000000000000000 ) ) ;
#105 = CARTESIAN_POINT ( 'NONE',  ( 4.996003610813200500E-016, 2.442490654175340100E-015, 0.3110770411054419900 ) ) ;
#106 = CALENDAR_DATE ( 2018, 21, 12 ) ;
#107 = ORIENTED_EDGE ( 'NONE', *, *, #65, .T. ) ;
#108 = CARTESIAN_POINT ( 'NONE',  ( -4.255634515394234500, -12.85227591330464300, 0.3185861474268727500 ) ) ;
#109 = EDGE_CURVE ( 'NONE', #181, #115, #205, .T. ) ;
#110 = DIRECTION ( 'NONE',  ( 1.000000000000000000, -8.881784197001252300E-016, 0.0000000000000000000 ) ) ;
#111 = CARTESIAN_POINT ( 'NONE',  ( 8.509977623790389200, -12.85227591330464300, 0.4234186073584764700 ) ) ;
#112 = APPROVAL_DATE_TIME ( #118, #13 ) ;
#113 =( BOUNDED_SURFACE ( )  B_SPLINE_SURFACE ( 3, 3, ( 
 ( #224, #72, #111, #2 ),
 ( #148, #128, #168, #94 ),
 ( #43, #152, #203, #190 ),
 ( #206, #209, #156, #116 ) ),
 .UNSPECIFIED., .F., .F., .F. ) 
 B_SPLINE_SURFACE_WITH_KNOTS ( ( 4, 4 ),
 ( 4, 4 ),
 ( 0.0000000000000000000, 1.000000000000000000 ),
 ( 0.0000000000000000000, 1.000000000000000000 ),
 .UNSPECIFIED. ) 
 GEOMETRIC_REPRESENTATION_ITEM ( )  RATIONAL_B_SPLINE_SURFACE ( (
 ( 1.000000000000000000, 0.9997976945634113900, 0.9997976945634113900, 1.000000000000000000),
 ( 0.9991812229570113900, 0.9989790831634699500, 0.9989790831634699500, 0.9991812229570113900),
 ( 0.9991812229570113900, 0.9989790831634699500, 0.9989790831634699500, 0.9991812229570113900),
 ( 1.000000000000000000, 0.9997976945634113900, 0.9997976945634113900, 1.000000000000000000) ) ) 
 REPRESENTATION_ITEM ( '' )  SURFACE ( )  );
#114 = MECHANICAL_CONTEXT ( 'NONE', #33, 'mechanical' ) ;
#115 = VERTEX_POINT ( 'NONE', #129 ) ;
#116 = CARTESIAN_POINT ( 'NONE',  ( 12.76044729496895900, 12.85227591330460800, 0.6330199026919939300 ) ) ;
#117 = CARTESIAN_POINT ( 'NONE',  ( -8.708848501708403800E-014, -12.69999999999990300, 0.3110770411054437100 ) ) ;
#118 = DATE_AND_TIME ( #169, #173 ) ;
#119 = DIRECTION ( 'NONE',  ( 0.0000000000000000000, 0.0000000000000000000, 1.000000000000000000 ) ) ;
#120 = DIRECTION ( 'NONE',  ( -0.0000000000000000000, -0.0000000000000000000, -1.000000000000000000 ) ) ;
#121 = DIRECTION ( 'NONE',  ( 1.000000000000000000, 0.0000000000000000000, 0.0000000000000000000 ) ) ;
#122 = PERSON_AND_ORGANIZATION ( #133, #175 ) ;
#123 = CARTESIAN_POINT ( 'NONE',  ( 4.996003610813200500E-016, 2.442490654175340100E-015, 3.000000000000000000 ) ) ;
#124 =( BOUNDED_SURFACE ( )  B_SPLINE_SURFACE ( 3, 3, ( 
 ( #55, #146, #108, #184 ),
 ( #15, #54, #1, #41 ),
 ( #216, #143, #36, #69 ),
 ( #234, #125, #19, #73 ) ),
 .UNSPECIFIED., .F., .F., .F. ) 
 B_SPLINE_SURFACE_WITH_KNOTS ( ( 4, 4 ),
 ( 4, 4 ),
 ( 0.0000000000000000000, 1.000000000000000000 ),
 ( 0.0000000000000000000, 1.000000000000000000 ),
 .UNSPECIFIED. ) 
 GEOMETRIC_REPRESENTATION_ITEM ( )  RATIONAL_B_SPLINE_SURFACE ( (
 ( 1.000000000000000000, 0.9997976945634113900, 0.9997976945634113900, 1.000000000000000000),
 ( 0.9991812229570113900, 0.9989790831634699500, 0.9989790831634699500, 0.9991812229570113900),
 ( 0.9991812229570113900, 0.9989790831634699500, 0.9989790831634699500, 0.9991812229570113900),
 ( 1.000000000000000000, 0.9997976945634113900, 0.9997976945634113900, 1.000000000000000000) ) ) 
 REPRESENTATION_ITEM ( '' )  SURFACE ( )  );
#125 = CARTESIAN_POINT ( 'NONE',  ( -8.509977623790426500, 12.85227591330460800, 0.4234186073584786400 ) ) ;
#126 = EDGE_CURVE ( 'NONE', #172, #218, #201, .T. ) ;
#127 = CARTESIAN_POINT ( 'NONE',  ( 4.996003610813200500E-016, 2.442490654175340100E-015, 0.3110770411054419900 ) ) ;
#128 = CARTESIAN_POINT ( 'NONE',  ( 4.262613345891282700, -4.287602561648497200, -0.1062824040681151800 ) ) ;
#129 = CARTESIAN_POINT ( 'NONE',  ( 12.69999999999999900, 2.442490654175340100E-015, 3.000000000000000000 ) ) ;
#130 = PRODUCT_RELATED_PRODUCT_CATEGORY ( 'detail', '', ( #202 ) ) ;
#131 = CIRCLE ( 'NONE', #147, 12.69999999999999900 ) ;
#132 = ORIENTED_EDGE ( 'NONE', *, *, #185, .T. ) ;
#133 = PERSON ( 'UNSPECIFIED', 'UNSPECIFIED', 'UNSPECIFIED', ('UNSPECIFIED'), ('UNSPECIFIED'), ('UNSPECIFIED') ) ;
#134 = AXIS2_PLACEMENT_3D ( 'NONE', #80, #29, #138 ) ;
#135 = APPLICATION_PROTOCOL_DEFINITION ( 'international standard', 'config_control_design', 1994, #33 ) ;
#136 = ORIENTED_EDGE ( 'NONE', *, *, #126, .F. ) ;
#137 = APPROVAL_STATUS ( 'not_yet_approved' ) ;
#138 = DIRECTION ( 'NONE',  ( 1.000000000000000000, 0.0000000000000000000, 0.0000000000000000000 ) ) ;
#139 = DIRECTION ( 'NONE',  ( 1.000000000000000000, 1.014630051716460000E-031, -2.264349047295540000E-016 ) ) ;
#140 = APPROVAL_DATE_TIME ( #66, #142 ) ;
#141 = ORIENTED_EDGE ( 'NONE', *, *, #170, .F. ) ;
#142 = APPROVAL ( #137, 'UNSPECIFIED' ) ;
#143 = CARTESIAN_POINT ( 'NONE',  ( -8.523933167001768400, 4.287602561648460800, -0.001278029004727476600 ) ) ;
#144 = DIRECTION ( 'NONE',  ( 1.000000000000000000, 0.0000000000000000000, 0.0000000000000000000 ) ) ;
#145 = ORIENTED_EDGE ( 'NONE', *, *, #39, .T. ) ;
#146 = CARTESIAN_POINT ( 'NONE',  ( -8.509977623790426500, -12.85227591330464300, 0.4234186073584786400 ) ) ;
#147 = AXIS2_PLACEMENT_3D ( 'NONE', #105, #220, #110 ) ;
#148 = CARTESIAN_POINT ( 'NONE',  ( -8.718298976328992100E-014, -4.287602561648498100, -0.1062824040681142100 ) ) ;
#149 = ORIENTED_EDGE ( 'NONE', *, *, #228, .F. ) ;
#150 = AXIS2_PLACEMENT_3D ( 'NONE', #230, #120, #12 ) ;
#151 = PERSON_AND_ORGANIZATION ( #133, #175 ) ;
#152 = CARTESIAN_POINT ( 'NONE',  ( 4.262613345891282700, 4.287602561648460800, -0.1062824040681158300 ) ) ;
#153 = FACE_OUTER_BOUND ( 'NONE', #158, .T. ) ;
#154 = DIRECTION ( 'NONE',  ( 0.0000000000000000000, -1.000000000000000000, -4.279965399480172100E-016 ) ) ;
#155 = CC_DESIGN_APPROVAL ( #142, ( #198 ) ) ;
#156 = CARTESIAN_POINT ( 'NONE',  ( 8.509977623790389200, 12.85227591330460800, 0.4234186073584764700 ) ) ;
#157 = APPROVAL_PERSON_ORGANIZATION ( #90, #93, #8 ) ;
#158 = EDGE_LOOP ( 'NONE', ( #183, #34, #51 ) ) ;
#159 = APPROVAL_ROLE ( '' ) ;
#160 = CARTESIAN_POINT ( 'NONE',  ( 12.69999999999999900, 2.442490654175340100E-015, 0.3110770411054419900 ) ) ;
#161 = CC_DESIGN_PERSON_AND_ORGANIZATION_ASSIGNMENT ( #18, #27, ( #202 ) ) ;
#162 = MANIFOLD_SOLID_BREP ( 'Imported1', #193 ) ;
#163 = DIRECTION ( 'NONE',  ( 1.000000000000000000, 0.0000000000000000000, 0.0000000000000000000 ) ) ;
#164 = COORDINATED_UNIVERSAL_TIME_OFFSET ( 2, 0, .AHEAD. ) ;
#165 = FACE_OUTER_BOUND ( 'NONE', #233, .T. ) ;
#166 = ADVANCED_FACE ( 'NONE', ( #100 ), #23, .T. ) ;
#167 = CARTESIAN_POINT ( 'NONE',  ( 12.69999999999999900, 2.442490654175340100E-015, 0.3110770411054419900 ) ) ;
#168 = CARTESIAN_POINT ( 'NONE',  ( 8.523933167001731100, -4.287602561648497200, -0.001278029004728967600 ) ) ;
#169 = CALENDAR_DATE ( 2018, 21, 12 ) ;
#170 = EDGE_CURVE ( 'NONE', #115, #98, #20, .T. ) ;
#171 = PERSON_AND_ORGANIZATION ( #133, #175 ) ;
#172 = VERTEX_POINT ( 'NONE', #199 ) ;
#173 = LOCAL_TIME ( 8, 48, 10.00000000000000000, #222 ) ;
#174 = APPROVAL_STATUS ( 'not_yet_approved' ) ;
#175 = ORGANIZATION ( 'UNSPECIFIED', 'UNSPECIFIED', '' ) ;
#176 = CC_DESIGN_DATE_AND_TIME_ASSIGNMENT ( #44, #47, ( #77 ) ) ;
#177 = EDGE_LOOP ( 'NONE', ( #136, #107, #132, #60, #40 ) ) ;
#178 = PERSON_AND_ORGANIZATION_ROLE ( 'design_supplier' ) ;
#179 = CARTESIAN_POINT ( 'NONE',  ( -2.842170943040400100E-014, -2.842170943040400100E-014, 259.3999999999999800 ) ) ;
#180 = AXIS2_PLACEMENT_3D ( 'NONE', #11, #119, #121 ) ;
#181 = VERTEX_POINT ( 'NONE', #167 ) ;
#182 = CARTESIAN_POINT ( 'NONE',  ( -12.69999999999999900, 3.997792089092478900E-015, 3.000000000000000000 ) ) ;
#183 = ORIENTED_EDGE ( 'NONE', *, *, #88, .T. ) ;
#184 = CARTESIAN_POINT ( 'NONE',  ( -1.474514954580286000E-013, -12.85227591330464300, 0.3185861474268708600 ) ) ;
#185 = EDGE_CURVE ( 'NONE', #98, #115, #71, .T. ) ;
#186 = APPROVAL_DATE_TIME ( #232, #93 ) ;
#187 = EDGE_CURVE ( 'NONE', #218, #181, #131, .T. ) ;
#188 = ORIENTED_EDGE ( 'NONE', *, *, #65, .F. ) ;
#189 = UNCERTAINTY_MEASURE_WITH_UNIT (LENGTH_MEASURE( 1.000000000000000100E-005 ), #63, 'distance_accuracy_value', 'NONE');
#190 = CARTESIAN_POINT ( 'NONE',  ( 12.78137319883069400, 4.287602561648461700, 0.2086669922542241100 ) ) ;
#191 = APPROVAL_ROLE ( '' ) ;
#192 = CC_DESIGN_APPROVAL ( #13, ( #77 ) ) ;
#193 = CLOSED_SHELL ( 'NONE', ( #215, #166, #197, #37, #17 ) ) ;
#194 = CC_DESIGN_PERSON_AND_ORGANIZATION_ASSIGNMENT ( #68, #46, ( #198 ) ) ;
#195 = PERSON_AND_ORGANIZATION_ROLE ( 'classification_officer' ) ;
#196 = CARTESIAN_POINT ( 'NONE',  ( -12.69999999999999900, 3.997792089092478900E-015, 0.3110770411054419900 ) ) ;
#197 = ADVANCED_FACE ( 'NONE', ( #42 ), #124, .T. ) ;
#198 = PRODUCT_DEFINITION ( 'UNKNOWN', '', #223, #3 ) ;
#199 = CARTESIAN_POINT ( 'NONE',  ( -12.69999999999999900, 3.997792089092478900E-015, 0.3110770411054419900 ) ) ;
#200 = CALENDAR_DATE ( 2018, 21, 12 ) ;
#201 = CIRCLE ( 'NONE', #78, 12.69999999999999900 ) ;
#202 = PRODUCT ( '110-0247E BK7 pl-cx 25.4 F500', '110-0247E BK7 pl-cx 25.4 F500', '', ( #114 ) ) ;
#203 = CARTESIAN_POINT ( 'NONE',  ( 8.523933167001731100, 4.287602561648460800, -0.001278029004729618100 ) ) ;
#204 = COORDINATED_UNIVERSAL_TIME_OFFSET ( 2, 0, .AHEAD. ) ;
#205 = LINE ( 'NONE', #160, #76 ) ;
#206 = CARTESIAN_POINT ( 'NONE',  ( -8.708678469330955000E-014, 12.85227591330460800, 0.3185861474268580900 ) ) ;
#207 = AXIS2_PLACEMENT_3D ( 'NONE', #82, #213, #102 ) ;
#208 =( NAMED_UNIT ( * ) PLANE_ANGLE_UNIT ( ) SI_UNIT ( $, .RADIAN. ) );
#209 = CARTESIAN_POINT ( 'NONE',  ( 4.255634515394101300, 12.85227591330460800, 0.3185861474268570400 ) ) ;
#210 = PERSON_AND_ORGANIZATION ( #133, #175 ) ;
#211 = ORIENTED_EDGE ( 'NONE', *, *, #88, .F. ) ;
#212 = AXIS2_PLACEMENT_3D ( 'NONE', #38, #221, #144 ) ;
#213 = DIRECTION ( 'NONE',  ( 0.0000000000000000000, 0.0000000000000000000, 1.000000000000000000 ) ) ;
#214 = SHAPE_DEFINITION_REPRESENTATION ( #95, #101 ) ;
#215 = ADVANCED_FACE ( 'NONE', ( #153 ), #113, .T. ) ;
#216 = CARTESIAN_POINT ( 'NONE',  ( -12.78137319883063200, 4.287602561648461700, 0.2086669922542193400 ) ) ;
#217 = CALENDAR_DATE ( 2018, 21, 12 ) ;
#218 = VERTEX_POINT ( 'NONE', #57 ) ;
#219 = DIRECTION ( 'NONE',  ( -0.0000000000000000000, -0.0000000000000000000, -1.000000000000000000 ) ) ;
#220 = DIRECTION ( 'NONE',  ( -0.0000000000000000000, -0.0000000000000000000, -1.000000000000000000 ) ) ;
#221 = DIRECTION ( 'NONE',  ( 0.0000000000000000000, 0.0000000000000000000, 1.000000000000000000 ) ) ;
#222 = COORDINATED_UNIVERSAL_TIME_OFFSET ( 2, 0, .AHEAD. ) ;
#223 = PRODUCT_DEFINITION_FORMATION_WITH_SPECIFIED_SOURCE ( 'ANY', '', #202, .NOT_KNOWN. ) ;
#224 = CARTESIAN_POINT ( 'NONE',  ( -8.708678469330955000E-014, -12.85227591330464300, 0.3185861474268580900 ) ) ;
#225 = CC_DESIGN_DATE_AND_TIME_ASSIGNMENT ( #103, #48, ( #198 ) ) ;
#226 = CIRCLE ( 'NONE', #16, 12.69999999999999900 ) ;
#227 = CC_DESIGN_PERSON_AND_ORGANIZATION_ASSIGNMENT ( #171, #31, ( #223 ) ) ;
#228 = EDGE_CURVE ( 'NONE', #32, #218, #84, .T. ) ;
#229 = ORIENTED_EDGE ( 'NONE', *, *, #109, .T. ) ;
#230 = CARTESIAN_POINT ( 'NONE',  ( 4.996003610813200500E-016, 2.442490654175340100E-015, 0.3110770411054419900 ) ) ;
#231 = AXIS2_PLACEMENT_3D ( 'NONE', #21, #22, #104 ) ;
#232 = DATE_AND_TIME ( #106, #4 ) ;
#233 = EDGE_LOOP ( 'NONE', ( #141, #86 ) ) ;
#234 = CARTESIAN_POINT ( 'NONE',  ( -12.76044729496889700, 12.85227591330460800, 0.6330199026919891600 ) ) ;
#235 = CIRCLE ( 'NONE', #150, 12.69999999999999900 ) ;
ENDSEC;
END-ISO-10303-21;
