ISO-10303-21;
HEADER;
FILE_DESCRIPTION (( 'STEP AP203' ),
    '1' );
FILE_NAME ('110-0245E BK7 pl-cx 25.4 F450.STEP',
    '2018-12-21T06:48:26',
    ( '' ),
    ( '' ),
    'SwSTEP 2.0',
    'SolidWorks 2017',
    '' );
FILE_SCHEMA (( 'CONFIG_CONTROL_DESIGN' ));
ENDSEC;

DATA;
#1 = CARTESIAN_POINT ( 'NONE',  ( -8.525456829707756900, -4.288419956397435200, -0.001426496694296297700 ) ) ;
#2 = CALENDAR_DATE ( 2018, 21, 12 ) ;
#3 = CIRCLE ( 'NONE', #212, 12.69999999999999900 ) ;
#4 = DIRECTION ( 'NONE',  ( 1.000000000000000000, 0.0000000000000000000, 0.0000000000000000000 ) ) ;
#5 = CARTESIAN_POINT ( 'NONE',  ( 5.684341886080800200E-014, 12.69999999999989800, 0.3457788410602451500 ) ) ;
#6 =( NAMED_UNIT ( * ) PLANE_ANGLE_UNIT ( ) SI_UNIT ( $, .RADIAN. ) );
#7 = DIRECTION ( 'NONE',  ( 1.000000000000000000, 0.0000000000000000000, -0.0000000000000000000 ) ) ;
#8 = ORIENTED_EDGE ( 'NONE', *, *, #143, .T. ) ;
#9 = PERSON_AND_ORGANIZATION_ROLE ( 'creator' ) ;
#10 = CIRCLE ( 'NONE', #156, 12.69999999999999900 ) ;
#11 = ADVANCED_FACE ( 'NONE', ( #167 ), #100, .T. ) ;
#12 = VECTOR ( 'NONE', #88, 1000.000000000000000 ) ;
#13 = CARTESIAN_POINT ( 'NONE',  ( 5.684341886080800200E-014, -12.69999999999988400, 0.3457788410602451500 ) ) ;
#14 = CARTESIAN_POINT ( 'NONE',  ( 5.684341886080800200E-014, -4.288419956397433500, -0.1181612576787965000 ) ) ;
#15 = CARTESIAN_POINT ( 'NONE',  ( -4.254904698442945900, 12.85224669324311400, 0.3541252136480641500 ) ) ;
#16 = CALENDAR_DATE ( 2018, 21, 12 ) ;
#17 = CARTESIAN_POINT ( 'NONE',  ( -12.78259207824294000, 4.288419956397440600, 0.2319554979102038700 ) ) ;
#18 = CARTESIAN_POINT ( 'NONE',  ( 5.684341886080800200E-014, 1.421085471520200100E-014, 233.4000000000000300 ) ) ;
#19 = COORDINATED_UNIVERSAL_TIME_OFFSET ( 2, 0, .AHEAD. ) ;
#20 =( BOUNDED_SURFACE ( )  B_SPLINE_SURFACE ( 3, 3, ( 
 ( #196, #217, #105, #102 ),
 ( #123, #1, #130, #82 ),
 ( #17, #144, #178, #194 ),
 ( #215, #161, #15, #145 ) ),
 .UNSPECIFIED., .F., .F., .F. ) 
 B_SPLINE_SURFACE_WITH_KNOTS ( ( 4, 4 ),
 ( 4, 4 ),
 ( 0.0000000000000000000, 1.000000000000000000 ),
 ( 0.0000000000000000000, 1.000000000000000000 ),
 .UNSPECIFIED. ) 
 GEOMETRIC_REPRESENTATION_ITEM ( )  RATIONAL_B_SPLINE_SURFACE ( (
 ( 1.000000000000000000, 0.9997500676927196800, 0.9997500676927196800, 1.000000000000000000),
 ( 0.9989885026745271000, 0.9987388231731071400, 0.9987388231731071400, 0.9989885026745271000),
 ( 0.9989885026745271000, 0.9987388231731071400, 0.9987388231731071400, 0.9989885026745271000),
 ( 1.000000000000000000, 0.9997500676927196800, 0.9997500676927196800, 1.000000000000000000) ) ) 
 REPRESENTATION_ITEM ( '' )  SURFACE ( )  );
#21 = DATE_AND_TIME ( #16, #64 ) ;
#22 = CARTESIAN_POINT ( 'NONE',  ( -12.69999999999999900, 3.997792089092478900E-015, 0.3457788410602499800 ) ) ;
#23 = DATE_TIME_ROLE ( 'creation_date' ) ;
#24 = DIRECTION ( 'NONE',  ( 0.0000000000000000000, 0.0000000000000000000, 1.000000000000000000 ) ) ;
#25 = DIRECTION ( 'NONE',  ( 1.000000000000000000, 0.0000000000000000000, 0.0000000000000000000 ) ) ;
#26 = ADVANCED_FACE ( 'NONE', ( #53 ), #20, .T. ) ;
#27 = DIRECTION ( 'NONE',  ( -0.0000000000000000000, -0.0000000000000000000, -1.000000000000000000 ) ) ;
#28 = CC_DESIGN_PERSON_AND_ORGANIZATION_ASSIGNMENT ( #203, #172, ( #87 ) ) ;
#29 = ORIENTED_EDGE ( 'NONE', *, *, #117, .F. ) ;
#30 = APPROVAL ( #74, 'UNSPECIFIED' ) ;
#31 = PERSON_AND_ORGANIZATION ( #177, #175 ) ;
#32 = CARTESIAN_POINT ( 'NONE',  ( 4.996003610813200500E-016, 2.442490654175340100E-015, 0.3457788410602499800 ) ) ;
#33 = ORIENTED_EDGE ( 'NONE', *, *, #179, .T. ) ;
#34 = PERSON_AND_ORGANIZATION ( #177, #175 ) ;
#35 = CARTESIAN_POINT ( 'NONE',  ( 5.684341886080800200E-014, -12.85224669324310500, 0.3541252136480821400 ) ) ;
#36 = ORIENTED_EDGE ( 'NONE', *, *, #143, .F. ) ;
#37 = DIRECTION ( 'NONE',  ( -0.0000000000000000000, -0.0000000000000000000, -1.000000000000000000 ) ) ;
#38 = CIRCLE ( 'NONE', #170, 12.69999999999999900 ) ;
#39 = PERSON_AND_ORGANIZATION_ROLE ( 'design_owner' ) ;
#40 = APPLICATION_CONTEXT ( 'configuration controlled 3d designs of mechanical parts and assemblies' ) ;
#41 = VERTEX_POINT ( 'NONE', #219 ) ;
#42 = CARTESIAN_POINT ( 'NONE',  ( 0.0000000000000000000, 26.11199999999999800, 3.000000000000000000 ) ) ;
#43 = CC_DESIGN_APPROVAL ( #30, ( #104 ) ) ;
#44 = APPROVAL_ROLE ( '' ) ;
#45 = COORDINATED_UNIVERSAL_TIME_OFFSET ( 2, 0, .AHEAD. ) ;
#46 = CALENDAR_DATE ( 2018, 21, 12 ) ;
#47 = APPROVAL_PERSON_ORGANIZATION ( #90, #121, #44 ) ;
#48 = VERTEX_POINT ( 'NONE', #13 ) ;
#49 = ORIENTED_EDGE ( 'NONE', *, *, #216, .T. ) ;
#50 = AXIS2_PLACEMENT_3D ( 'NONE', #80, #51, #83 ) ;
#51 = DIRECTION ( 'NONE',  ( 0.0000000000000000000, 0.0000000000000000000, 1.000000000000000000 ) ) ;
#52 = CARTESIAN_POINT ( 'NONE',  ( 5.684341886080800200E-014, 12.85224669324311200, 0.3541252136480543800 ) ) ;
#53 = FACE_OUTER_BOUND ( 'NONE', #59, .T. ) ;
#54 = CARTESIAN_POINT ( 'NONE',  ( 4.996003610813200500E-016, 2.442490654175340100E-015, 0.3457788410602499800 ) ) ;
#55 = APPLICATION_PROTOCOL_DEFINITION ( 'international standard', 'config_control_design', 1994, #171 ) ;
#56 = ORIENTED_EDGE ( 'NONE', *, *, #179, .F. ) ;
#57 = PERSON_AND_ORGANIZATION_ROLE ( 'classification_officer' ) ;
#58 = SECURITY_CLASSIFICATION ( '', '', #152 ) ;
#59 = EDGE_LOOP ( 'NONE', ( #36, #225, #49 ) ) ;
#60 = CC_DESIGN_PERSON_AND_ORGANIZATION_ASSIGNMENT ( #214, #113, ( #104 ) ) ;
#61 = LINE ( 'NONE', #107, #12 ) ;
#62 = APPROVAL_PERSON_ORGANIZATION ( #34, #30, #136 ) ;
#63 =( GEOMETRIC_REPRESENTATION_CONTEXT ( 3 ) GLOBAL_UNCERTAINTY_ASSIGNED_CONTEXT ( ( #66 ) ) GLOBAL_UNIT_ASSIGNED_CONTEXT ( ( #112, #6, #166 ) ) REPRESENTATION_CONTEXT ( 'NONE', 'WORKASPACE' ) );
#64 = LOCAL_TIME ( 8, 48, 26.00000000000000000, #206 ) ;
#65 = CARTESIAN_POINT ( 'NONE',  ( 12.75673950525864300, 12.85224669324311200, 0.7035338641108660500 ) ) ;
#66 = UNCERTAINTY_MEASURE_WITH_UNIT (LENGTH_MEASURE( 1.000000000000000100E-005 ), #112, 'distance_accuracy_value', 'NONE');
#67 = AXIS2_PLACEMENT_3D ( 'NONE', #150, #131, #4 ) ;
#68 = ORIENTED_EDGE ( 'NONE', *, *, #227, .F. ) ;
#69 = DIRECTION ( 'NONE',  ( -0.0000000000000000000, -0.0000000000000000000, -1.000000000000000000 ) ) ;
#70 = DIRECTION ( 'NONE',  ( 1.000000000000000000, 0.0000000000000000000, 0.0000000000000000000 ) ) ;
#71 = PRODUCT_RELATED_PRODUCT_CATEGORY ( 'detail', '', ( #213 ) ) ;
#72 = DIRECTION ( 'NONE',  ( -0.0000000000000000000, -0.0000000000000000000, -1.000000000000000000 ) ) ;
#73 = CIRCLE ( 'NONE', #115, 12.69999999999999900 ) ;
#74 = APPROVAL_STATUS ( 'not_yet_approved' ) ;
#75 = CC_DESIGN_DATE_AND_TIME_ASSIGNMENT ( #230, #23, ( #104 ) ) ;
#76 =( BOUNDED_SURFACE ( )  B_SPLINE_SURFACE ( 3, 3, ( 
 ( #35, #103, #233, #157 ),
 ( #14, #181, #235, #224 ),
 ( #202, #200, #110, #162 ),
 ( #52, #163, #184, #65 ) ),
 .UNSPECIFIED., .F., .F., .T. ) 
 B_SPLINE_SURFACE_WITH_KNOTS ( ( 4, 4 ),
 ( 4, 4 ),
 ( 0.0000000000000000000, 1.000000000000000000 ),
 ( 0.0000000000000000000, 1.000000000000000000 ),
 .UNSPECIFIED. ) 
 GEOMETRIC_REPRESENTATION_ITEM ( )  RATIONAL_B_SPLINE_SURFACE ( (
 ( 1.000000000000000000, 0.9997500676927196800, 0.9997500676927196800, 1.000000000000000000),
 ( 0.9989885026745271000, 0.9987388231731071400, 0.9987388231731071400, 0.9989885026745271000),
 ( 0.9989885026745271000, 0.9987388231731071400, 0.9987388231731071400, 0.9989885026745271000),
 ( 1.000000000000000000, 0.9997500676927196800, 0.9997500676927196800, 1.000000000000000000) ) ) 
 REPRESENTATION_ITEM ( '' )  SURFACE ( )  );
#77 = AXIS2_PLACEMENT_3D ( 'NONE', #42, #188, #7 ) ;
#78 = FACE_OUTER_BOUND ( 'NONE', #231, .T. ) ;
#79 = AXIS2_PLACEMENT_3D ( 'NONE', #229, #69, #92 ) ;
#80 = CARTESIAN_POINT ( 'NONE',  ( 4.996003610813200500E-016, 2.442490654175340100E-015, 0.3457788410602499800 ) ) ;
#81 = CC_DESIGN_PERSON_AND_ORGANIZATION_ASSIGNMENT ( #31, #57, ( #58 ) ) ;
#82 = CARTESIAN_POINT ( 'NONE',  ( 1.734723475976806900E-015, -4.288419956397433500, -0.1181612576787876700 ) ) ;
#83 = DIRECTION ( 'NONE',  ( 1.000000000000000000, 0.0000000000000000000, 0.0000000000000000000 ) ) ;
#84 = ORIENTED_EDGE ( 'NONE', *, *, #227, .T. ) ;
#85 = CARTESIAN_POINT ( 'NONE',  ( 12.69999999999999900, 2.442490654175340100E-015, 0.3457788410602499800 ) ) ;
#86 = APPROVAL_DATE_TIME ( #21, #30 ) ;
#87 = PRODUCT_DEFINITION_FORMATION_WITH_SPECIFIED_SOURCE ( 'ANY', '', #213, .NOT_KNOWN. ) ;
#88 = DIRECTION ( 'NONE',  ( 0.0000000000000000000, 0.0000000000000000000, 1.000000000000000000 ) ) ;
#89 = ORIENTED_EDGE ( 'NONE', *, *, #192, .F. ) ;
#90 = PERSON_AND_ORGANIZATION ( #177, #175 ) ;
#91 = EDGE_CURVE ( 'NONE', #48, #119, #3, .T. ) ;
#92 = DIRECTION ( 'NONE',  ( 1.000000000000000000, 0.0000000000000000000, 0.0000000000000000000 ) ) ;
#93 = DIRECTION ( 'NONE',  ( 1.000000000000000000, 0.0000000000000000000, 0.0000000000000000000 ) ) ;
#94 = ADVANCED_FACE ( 'NONE', ( #198 ), #76, .T. ) ;
#95 = ORIENTED_EDGE ( 'NONE', *, *, #117, .T. ) ;
#96 = APPROVAL_STATUS ( 'not_yet_approved' ) ;
#97 = CC_DESIGN_PERSON_AND_ORGANIZATION_ASSIGNMENT ( #158, #9, ( #87 ) ) ;
#98 = CIRCLE ( 'NONE', #79, 12.69999999999999900 ) ;
#99 = LOCAL_TIME ( 8, 48, 26.00000000000000000, #139 ) ;
#100 = CYLINDRICAL_SURFACE ( 'NONE', #50, 12.69999999999999900 ) ;
#101 = CC_DESIGN_PERSON_AND_ORGANIZATION_ASSIGNMENT ( #168, #39, ( #213 ) ) ;
#102 = CARTESIAN_POINT ( 'NONE',  ( 1.734723475976807100E-015, -12.85224669324310500, 0.3541252136480909100 ) ) ;
#103 = CARTESIAN_POINT ( 'NONE',  ( 4.254904698442942400, -12.85224669324310700, 0.3541252136480822500 ) ) ;
#104 = PRODUCT_DEFINITION ( 'UNKNOWN', '', #87, #142 ) ;
#105 = CARTESIAN_POINT ( 'NONE',  ( -4.254904698442944200, -12.85224669324310700, 0.3541252136480920700 ) ) ;
#106 = APPROVAL_PERSON_ORGANIZATION ( #124, #149, #120 ) ;
#107 = CARTESIAN_POINT ( 'NONE',  ( -12.69999999999999900, 3.997792089092478900E-015, 0.3457788410602499800 ) ) ;
#108 = CARTESIAN_POINT ( 'NONE',  ( -12.69999999999999900, 3.997792089092478900E-015, 3.000000000000000000 ) ) ;
#109 = CALENDAR_DATE ( 2018, 21, 12 ) ;
#110 = CARTESIAN_POINT ( 'NONE',  ( 8.525456829707691100, 4.288419956397442300, -0.001426496694321966000 ) ) ;
#111 = DIRECTION ( 'NONE',  ( 1.000000000000000000, 0.0000000000000000000, 0.0000000000000000000 ) ) ;
#112 =( LENGTH_UNIT ( ) NAMED_UNIT ( * ) SI_UNIT ( .MILLI., .METRE. ) );
#113 = PERSON_AND_ORGANIZATION_ROLE ( 'creator' ) ;
#114 = ORIENTED_EDGE ( 'NONE', *, *, #91, .F. ) ;
#115 = AXIS2_PLACEMENT_3D ( 'NONE', #54, #27, #111 ) ;
#116 = CIRCLE ( 'NONE', #207, 233.4000000000000300 ) ;
#117 = EDGE_CURVE ( 'NONE', #182, #41, #218, .T. ) ;
#118 = EDGE_LOOP ( 'NONE', ( #180, #204, #33, #29, #68 ) ) ;
#119 = VERTEX_POINT ( 'NONE', #22 ) ;
#120 = APPROVAL_ROLE ( '' ) ;
#121 = APPROVAL ( #154, 'UNSPECIFIED' ) ;
#122 = CYLINDRICAL_SURFACE ( 'NONE', #67, 12.69999999999999900 ) ;
#123 = CARTESIAN_POINT ( 'NONE',  ( -12.78259207824293900, -4.288419956397433500, 0.2319554979102308700 ) ) ;
#124 = PERSON_AND_ORGANIZATION ( #177, #175 ) ;
#125 = CC_DESIGN_APPROVAL ( #149, ( #58 ) ) ;
#126 = EDGE_LOOP ( 'NONE', ( #176, #114, #173, #95, #195 ) ) ;
#127 = CC_DESIGN_DATE_AND_TIME_ASSIGNMENT ( #209, #169, ( #58 ) ) ;
#128 = PRODUCT_DEFINITION_SHAPE ( 'NONE', 'NONE',  #104 ) ;
#129 = DIRECTION ( 'NONE',  ( 1.000000000000000000, 0.0000000000000000000, 0.0000000000000000000 ) ) ;
#130 = CARTESIAN_POINT ( 'NONE',  ( -4.263527609823383600, -4.288419956397435200, -0.1181612576787866700 ) ) ;
#131 = DIRECTION ( 'NONE',  ( 0.0000000000000000000, 0.0000000000000000000, 1.000000000000000000 ) ) ;
#132 = AXIS2_PLACEMENT_3D ( 'NONE', #137, #24, #25 ) ;
#133 = CC_DESIGN_APPROVAL ( #121, ( #87 ) ) ;
#134 = LOCAL_TIME ( 8, 48, 26.00000000000000000, #19 ) ;
#135 = VERTEX_POINT ( 'NONE', #5 ) ;
#136 = APPROVAL_ROLE ( '' ) ;
#137 = CARTESIAN_POINT ( 'NONE',  ( 0.0000000000000000000, 0.0000000000000000000, 0.0000000000000000000 ) ) ;
#138 = VERTEX_POINT ( 'NONE', #108 ) ;
#139 = COORDINATED_UNIVERSAL_TIME_OFFSET ( 2, 0, .AHEAD. ) ;
#140 = EDGE_CURVE ( 'NONE', #119, #138, #61, .T. ) ;
#141 = ADVANCED_FACE ( 'NONE', ( #185 ), #122, .T. ) ;
#142 = DESIGN_CONTEXT ( 'detailed design', #171, 'design' ) ;
#143 = EDGE_CURVE ( 'NONE', #48, #135, #116, .T. ) ;
#144 = CARTESIAN_POINT ( 'NONE',  ( -8.525456829707758600, 4.288419956397442300, -0.001426496694323321500 ) ) ;
#145 = CARTESIAN_POINT ( 'NONE',  ( 0.0000000000000000000, 12.85224669324311200, 0.3541252136480630400 ) ) ;
#146 = APPROVAL_DATE_TIME ( #165, #121 ) ;
#147 = CALENDAR_DATE ( 2018, 21, 12 ) ;
#148 = DIRECTION ( 'NONE',  ( 1.000000000000000000, 0.0000000000000000000, 0.0000000000000000000 ) ) ;
#149 = APPROVAL ( #96, 'UNSPECIFIED' ) ;
#150 = CARTESIAN_POINT ( 'NONE',  ( 4.996003610813200500E-016, 2.442490654175340100E-015, 0.3457788410602499800 ) ) ;
#151 = APPROVAL_DATE_TIME ( #223, #149 ) ;
#152 = SECURITY_CLASSIFICATION_LEVEL ( 'unclassified' ) ;
#153 = APPLICATION_PROTOCOL_DEFINITION ( 'international standard', 'config_control_design', 1994, #40 ) ;
#154 = APPROVAL_STATUS ( 'not_yet_approved' ) ;
#155 = CIRCLE ( 'NONE', #220, 12.69999999999999900 ) ;
#156 = AXIS2_PLACEMENT_3D ( 'NONE', #221, #37, #183 ) ;
#157 = CARTESIAN_POINT ( 'NONE',  ( 12.75673950525864000, -12.85224669324310500, 0.7035338641108936900 ) ) ;
#158 = PERSON_AND_ORGANIZATION ( #177, #175 ) ;
#159 = DIRECTION ( 'NONE',  ( -0.0000000000000000000, -0.0000000000000000000, -1.000000000000000000 ) ) ;
#160 = CARTESIAN_POINT ( 'NONE',  ( 12.69999999999999900, 2.442490654175340100E-015, 0.3457788410602499800 ) ) ;
#161 = CARTESIAN_POINT ( 'NONE',  ( -8.508214239663086400, 12.85224669324311400, 0.4706238805829542300 ) ) ;
#162 = CARTESIAN_POINT ( 'NONE',  ( 12.78259207824281200, 4.288419956397440600, 0.2319554979101975100 ) ) ;
#163 = CARTESIAN_POINT ( 'NONE',  ( 4.254904698442942400, 12.85224669324311400, 0.3541252136480544400 ) ) ;
#164 = DIRECTION ( 'NONE',  ( 0.0000000000000000000, 0.0000000000000000000, 1.000000000000000000 ) ) ;
#165 = DATE_AND_TIME ( #2, #134 ) ;
#166 =( NAMED_UNIT ( * ) SI_UNIT ( $, .STERADIAN. ) SOLID_ANGLE_UNIT ( ) );
#167 = FACE_OUTER_BOUND ( 'NONE', #126, .T. ) ;
#168 = PERSON_AND_ORGANIZATION ( #177, #175 ) ;
#169 = DATE_TIME_ROLE ( 'classification_date' ) ;
#170 = AXIS2_PLACEMENT_3D ( 'NONE', #208, #205, #93 ) ;
#171 = APPLICATION_CONTEXT ( 'configuration controlled 3d designs of mechanical parts and assemblies' ) ;
#172 = PERSON_AND_ORGANIZATION_ROLE ( 'design_supplier' ) ;
#173 = ORIENTED_EDGE ( 'NONE', *, *, #187, .F. ) ;
#174 = MANIFOLD_SOLID_BREP ( 'Imported1', #186 ) ;
#175 = ORGANIZATION ( 'UNSPECIFIED', 'UNSPECIFIED', '' ) ;
#176 = ORIENTED_EDGE ( 'NONE', *, *, #140, .F. ) ;
#177 = PERSON ( 'UNSPECIFIED', 'UNSPECIFIED', 'UNSPECIFIED', ('UNSPECIFIED'), ('UNSPECIFIED'), ('UNSPECIFIED') ) ;
#178 = CARTESIAN_POINT ( 'NONE',  ( -4.263527609823383600, 4.288419956397442300, -0.1181612576788137600 ) ) ;
#179 = EDGE_CURVE ( 'NONE', #138, #41, #10, .T. ) ;
#180 = ORIENTED_EDGE ( 'NONE', *, *, #216, .F. ) ;
#181 = CARTESIAN_POINT ( 'NONE',  ( 4.263527609823381900, -4.288419956397435200, -0.1181612576787965100 ) ) ;
#182 = VERTEX_POINT ( 'NONE', #85 ) ;
#183 = DIRECTION ( 'NONE',  ( 1.000000000000000000, 0.0000000000000000000, 0.0000000000000000000 ) ) ;
#184 = CARTESIAN_POINT ( 'NONE',  ( 8.508214239663020700, 12.85224669324311400, 0.4706238805829556200 ) ) ;
#185 = FACE_OUTER_BOUND ( 'NONE', #118, .T. ) ;
#186 = CLOSED_SHELL ( 'NONE', ( #94, #141, #26, #11, #211 ) ) ;
#187 = EDGE_CURVE ( 'NONE', #182, #48, #73, .T. ) ;
#188 = DIRECTION ( 'NONE',  ( 0.0000000000000000000, 0.0000000000000000000, 1.000000000000000000 ) ) ;
#189 = ORIENTED_EDGE ( 'NONE', *, *, #187, .T. ) ;
#190 = MECHANICAL_CONTEXT ( 'NONE', #40, 'mechanical' ) ;
#191 = LOCAL_TIME ( 8, 48, 26.00000000000000000, #197 ) ;
#192 = EDGE_CURVE ( 'NONE', #41, #138, #155, .T. ) ;
#193 = VECTOR ( 'NONE', #164, 1000.000000000000000 ) ;
#194 = CARTESIAN_POINT ( 'NONE',  ( 1.734723475976806900E-015, 4.288419956397440600, -0.1181612576788147700 ) ) ;
#195 = ORIENTED_EDGE ( 'NONE', *, *, #192, .T. ) ;
#196 = CARTESIAN_POINT ( 'NONE',  ( -12.75673950525876600, -12.85224669324310500, 0.7035338641109001300 ) ) ;
#197 = COORDINATED_UNIVERSAL_TIME_OFFSET ( 2, 0, .AHEAD. ) ;
#198 = FACE_OUTER_BOUND ( 'NONE', #228, .T. ) ;
#199 = CC_DESIGN_SECURITY_CLASSIFICATION ( #58, ( #87 ) ) ;
#200 = CARTESIAN_POINT ( 'NONE',  ( 4.263527609823381900, 4.288419956397442300, -0.1181612576788235000 ) ) ;
#201 = PLANE ( 'NONE',  #77 ) ;
#202 = CARTESIAN_POINT ( 'NONE',  ( 5.684341886080800200E-014, 4.288419956397440600, -0.1181612576788235000 ) ) ;
#203 = PERSON_AND_ORGANIZATION ( #177, #175 ) ;
#204 = ORIENTED_EDGE ( 'NONE', *, *, #140, .T. ) ;
#205 = DIRECTION ( 'NONE',  ( -0.0000000000000000000, -0.0000000000000000000, -1.000000000000000000 ) ) ;
#206 = COORDINATED_UNIVERSAL_TIME_OFFSET ( 2, 0, .AHEAD. ) ;
#207 = AXIS2_PLACEMENT_3D ( 'NONE', #18, #148, #222 ) ;
#208 = CARTESIAN_POINT ( 'NONE',  ( 4.996003610813200500E-016, 2.442490654175340100E-015, 0.3457788410602499800 ) ) ;
#209 = DATE_AND_TIME ( #46, #99 ) ;
#210 = ADVANCED_BREP_SHAPE_REPRESENTATION ( '110-0245E BK7 pl-cx 25.4 F450', ( #174, #132 ), #63 ) ;
#211 = ADVANCED_FACE ( 'NONE', ( #78 ), #201, .T. ) ;
#212 = AXIS2_PLACEMENT_3D ( 'NONE', #32, #159, #129 ) ;
#213 = PRODUCT ( '110-0245E BK7 pl-cx 25.4 F450', '110-0245E BK7 pl-cx 25.4 F450', '', ( #190 ) ) ;
#214 = PERSON_AND_ORGANIZATION ( #177, #175 ) ;
#215 = CARTESIAN_POINT ( 'NONE',  ( -12.75673950525876800, 12.85224669324311200, 0.7035338641108723800 ) ) ;
#216 = EDGE_CURVE ( 'NONE', #119, #135, #38, .T. ) ;
#217 = CARTESIAN_POINT ( 'NONE',  ( -8.508214239663084700, -12.85224669324310700, 0.4706238805829820500 ) ) ;
#218 = LINE ( 'NONE', #160, #193 ) ;
#219 = CARTESIAN_POINT ( 'NONE',  ( 12.69999999999999900, 2.442490654175340100E-015, 3.000000000000000000 ) ) ;
#220 = AXIS2_PLACEMENT_3D ( 'NONE', #226, #72, #70 ) ;
#221 = CARTESIAN_POINT ( 'NONE',  ( 4.996003610813200500E-016, 2.442490654175340100E-015, 3.000000000000000000 ) ) ;
#222 = DIRECTION ( 'NONE',  ( 0.0000000000000000000, -1.000000000000000000, -2.378369804252691300E-016 ) ) ;
#223 = DATE_AND_TIME ( #109, #191 ) ;
#224 = CARTESIAN_POINT ( 'NONE',  ( 12.78259207824281100, -4.288419956397433500, 0.2319554979102244300 ) ) ;
#225 = ORIENTED_EDGE ( 'NONE', *, *, #91, .T. ) ;
#226 = CARTESIAN_POINT ( 'NONE',  ( 4.996003610813200500E-016, 2.442490654175340100E-015, 3.000000000000000000 ) ) ;
#227 = EDGE_CURVE ( 'NONE', #135, #182, #98, .T. ) ;
#228 = EDGE_LOOP ( 'NONE', ( #189, #8, #84 ) ) ;
#229 = CARTESIAN_POINT ( 'NONE',  ( 4.996003610813200500E-016, 2.442490654175340100E-015, 0.3457788410602499800 ) ) ;
#230 = DATE_AND_TIME ( #147, #232 ) ;
#231 = EDGE_LOOP ( 'NONE', ( #89, #56 ) ) ;
#232 = LOCAL_TIME ( 8, 48, 26.00000000000000000, #45 ) ;
#233 = CARTESIAN_POINT ( 'NONE',  ( 8.508214239663017200, -12.85224669324310700, 0.4706238805829833800 ) ) ;
#234 = SHAPE_DEFINITION_REPRESENTATION ( #128, #210 ) ;
#235 = CARTESIAN_POINT ( 'NONE',  ( 8.525456829707689400, -4.288419956397435200, -0.001426496694294996700 ) ) ;
ENDSEC;
END-ISO-10303-21;
