ISO-10303-21;
HEADER;
FILE_DESCRIPTION (( 'STEP AP203' ),
    '1' );
FILE_NAME ('110-0243E BK7 pl-cx 25.4 F400.STEP',
    '2018-12-21T06:48:37',
    ( '' ),
    ( '' ),
    'SwSTEP 2.0',
    'SolidWorks 2017',
    '' );
FILE_SCHEMA (( 'CONFIG_CONTROL_DESIGN' ));
ENDSEC;

DATA;
#1 = APPROVAL_STATUS ( 'not_yet_approved' ) ;
#2 = COORDINATED_UNIVERSAL_TIME_OFFSET ( 2, 0, .AHEAD. ) ;
#3 = PERSON_AND_ORGANIZATION ( #223, #214 ) ;
#4 = CIRCLE ( 'NONE', #13, 207.5000000000000300 ) ;
#5 = CARTESIAN_POINT ( 'NONE',  ( -12.69999999999999900, 3.997792089092478900E-015, 0.3890152599336410000 ) ) ;
#6 = CARTESIAN_POINT ( 'NONE',  ( 4.996003610813200500E-016, 2.442490654175340100E-015, 0.3890152599336410000 ) ) ;
#7 = CC_DESIGN_PERSON_AND_ORGANIZATION_ASSIGNMENT ( #186, #141, ( #200 ) ) ;
#8 = CARTESIAN_POINT ( 'NONE',  ( 12.69999999999999900, 2.442490654175340100E-015, 3.000000000000000000 ) ) ;
#9 = DIRECTION ( 'NONE',  ( 0.0000000000000000000, 0.0000000000000000000, 1.000000000000000000 ) ) ;
#10 = CARTESIAN_POINT ( 'NONE',  ( 3.122502256758252800E-014, -12.85220597256697900, 0.3984046376302814400 ) ) ;
#11 = VERTEX_POINT ( 'NONE', #164 ) ;
#12 = CARTESIAN_POINT ( 'NONE',  ( 12.78429113032296800, -4.289559357414312900, 0.2609765060222017900 ) ) ;
#13 = AXIS2_PLACEMENT_3D ( 'NONE', #165, #75, #210 ) ;
#14 = PERSON_AND_ORGANIZATION ( #223, #214 ) ;
#15 = CARTESIAN_POINT ( 'NONE',  ( -4.264802093766043400, -4.289559357414317400, -0.1329717517002343100 ) ) ;
#16 = VECTOR ( 'NONE', #39, 1000.000000000000000 ) ;
#17 = CARTESIAN_POINT ( 'NONE',  ( -8.527580773337577500, 4.289559357414336000, -0.001614117807621231400 ) ) ;
#18 = APPLICATION_PROTOCOL_DEFINITION ( 'international standard', 'config_control_design', 1994, #86 ) ;
#19 = PRODUCT_DEFINITION ( 'UNKNOWN', '', #200, #81 ) ;
#20 = ORIENTED_EDGE ( 'NONE', *, *, #42, .F. ) ;
#21 = MECHANICAL_CONTEXT ( 'NONE', #175, 'mechanical' ) ;
#22 = APPROVAL_DATE_TIME ( #133, #227 ) ;
#23 = PLANE ( 'NONE',  #93 ) ;
#24 =( BOUNDED_SURFACE ( )  B_SPLINE_SURFACE ( 3, 3, ( 
 ( #112, #126, #96, #10 ),
 ( #195, #215, #15, #234 ),
 ( #116, #17, #104, #131 ),
 ( #101, #32, #134, #151 ) ),
 .UNSPECIFIED., .F., .F., .F. ) 
 B_SPLINE_SURFACE_WITH_KNOTS ( ( 4, 4 ),
 ( 4, 4 ),
 ( 0.0000000000000000000, 1.000000000000000000 ),
 ( 0.0000000000000000000, 1.000000000000000000 ),
 .UNSPECIFIED. ) 
 GEOMETRIC_REPRESENTATION_ITEM ( )  RATIONAL_B_SPLINE_SURFACE ( (
 ( 1.000000000000000000, 0.9996837033075151000, 0.9996837033075151000, 1.000000000000000000),
 ( 0.9987199850999829400, 0.9984040932719772100, 0.9984040932719772100, 0.9987199850999829400),
 ( 0.9987199850999829400, 0.9984040932719772100, 0.9984040932719772100, 0.9987199850999829400),
 ( 1.000000000000000000, 0.9996837033075151000, 0.9996837033075151000, 1.000000000000000000) ) ) 
 REPRESENTATION_ITEM ( '' )  SURFACE ( )  );
#25 = ADVANCED_FACE ( 'NONE', ( #203 ), #23, .T. ) ;
#26 = ORIENTED_EDGE ( 'NONE', *, *, #34, .T. ) ;
#27 = CC_DESIGN_PERSON_AND_ORGANIZATION_ASSIGNMENT ( #87, #218, ( #200 ) ) ;
#28 = CALENDAR_DATE ( 2018, 21, 12 ) ;
#29 = CARTESIAN_POINT ( 'NONE',  ( 12.75157344389932500, -12.85220597256697800, 0.7913446990098844700 ) ) ;
#30 = CARTESIAN_POINT ( 'NONE',  ( 4.253887569359473100, 12.85220597256700600, 0.3984046376303018200 ) ) ;
#31 = LOCAL_TIME ( 8, 48, 37.00000000000000000, #76 ) ;
#32 = CARTESIAN_POINT ( 'NONE',  ( -8.505756902866371800, 12.85220597256700100, 0.5294260997452632200 ) ) ;
#33 =( LENGTH_UNIT ( ) NAMED_UNIT ( * ) SI_UNIT ( .MILLI., .METRE. ) );
#34 = EDGE_CURVE ( 'NONE', #140, #193, #125, .T. ) ;
#35 = PRODUCT_DEFINITION_SHAPE ( 'NONE', 'NONE',  #19 ) ;
#36 = DATE_AND_TIME ( #144, #232 ) ;
#37 = PERSON_AND_ORGANIZATION_ROLE ( 'design_owner' ) ;
#38 = EDGE_LOOP ( 'NONE', ( #233, #190, #94 ) ) ;
#39 = DIRECTION ( 'NONE',  ( 0.0000000000000000000, 0.0000000000000000000, 1.000000000000000000 ) ) ;
#40 = CARTESIAN_POINT ( 'NONE',  ( 12.69999999999999900, 2.442490654175340100E-015, 0.3890152599336410000 ) ) ;
#41 = APPROVAL ( #50, 'UNSPECIFIED' ) ;
#42 = EDGE_CURVE ( 'NONE', #235, #117, #183, .T. ) ;
#43 = CARTESIAN_POINT ( 'NONE',  ( -12.69999999999999900, 3.997792089092478900E-015, 3.000000000000000000 ) ) ;
#44 = DIRECTION ( 'NONE',  ( -0.0000000000000000000, -0.0000000000000000000, -1.000000000000000000 ) ) ;
#45 = ORIENTED_EDGE ( 'NONE', *, *, #185, .T. ) ;
#46 = CARTESIAN_POINT ( 'NONE',  ( 4.996003610813200500E-016, 2.442490654175340100E-015, 0.3890152599336410000 ) ) ;
#47 = ORIENTED_EDGE ( 'NONE', *, *, #159, .T. ) ;
#48 = DATE_AND_TIME ( #28, #84 ) ;
#49 = EDGE_CURVE ( 'NONE', #140, #11, #4, .T. ) ;
#50 = APPROVAL_STATUS ( 'not_yet_approved' ) ;
#51 = CARTESIAN_POINT ( 'NONE',  ( 12.69999999999999900, 2.442490654175340100E-015, 0.3890152599336410000 ) ) ;
#52 = CALENDAR_DATE ( 2018, 21, 12 ) ;
#53 = AXIS2_PLACEMENT_3D ( 'NONE', #206, #44, #113 ) ;
#54 = ORIENTED_EDGE ( 'NONE', *, *, #49, .F. ) ;
#55 = DIRECTION ( 'NONE',  ( 1.000000000000000000, 0.0000000000000000000, -0.0000000000000000000 ) ) ;
#56 = LINE ( 'NONE', #51, #154 ) ;
#57 = CC_DESIGN_DATE_AND_TIME_ASSIGNMENT ( #36, #138, ( #118 ) ) ;
#58 = CARTESIAN_POINT ( 'NONE',  ( 8.215000346024447600E-014, -12.85220597256697900, 0.3984046376303007600 ) ) ;
#59 = DIRECTION ( 'NONE',  ( -0.0000000000000000000, -0.0000000000000000000, -1.000000000000000000 ) ) ;
#60 = CC_DESIGN_SECURITY_CLASSIFICATION ( #118, ( #200 ) ) ;
#61 = LINE ( 'NONE', #5, #16 ) ;
#62 = AXIS2_PLACEMENT_3D ( 'NONE', #46, #9, #167 ) ;
#63 = AXIS2_PLACEMENT_3D ( 'NONE', #209, #105, #152 ) ;
#64 = DATE_AND_TIME ( #79, #69 ) ;
#65 = APPROVAL_ROLE ( '' ) ;
#66 = CIRCLE ( 'NONE', #174, 12.69999999999999900 ) ;
#67 = FACE_OUTER_BOUND ( 'NONE', #180, .T. ) ;
#68 = AXIS2_PLACEMENT_3D ( 'NONE', #146, #181, #124 ) ;
#69 = LOCAL_TIME ( 8, 48, 37.00000000000000000, #90 ) ;
#70 = DIRECTION ( 'NONE',  ( 1.000000000000000000, 0.0000000000000000000, 0.0000000000000000000 ) ) ;
#71 =( GEOMETRIC_REPRESENTATION_CONTEXT ( 3 ) GLOBAL_UNCERTAINTY_ASSIGNED_CONTEXT ( ( #207 ) ) GLOBAL_UNIT_ASSIGNED_CONTEXT ( ( #33, #156, #85 ) ) REPRESENTATION_CONTEXT ( 'NONE', 'WORKASPACE' ) );
#72 = ORIENTED_EDGE ( 'NONE', *, *, #42, .T. ) ;
#73 = CARTESIAN_POINT ( 'NONE',  ( 12.78429113032296400, 4.289559357414342200, 0.2609765060222007400 ) ) ;
#74 = DIRECTION ( 'NONE',  ( 1.000000000000000000, 0.0000000000000000000, 0.0000000000000000000 ) ) ;
#75 = DIRECTION ( 'NONE',  ( 1.000000000000000000, 2.800826601236830100E-016, 2.420484202686870100E-016 ) ) ;
#76 = COORDINATED_UNIVERSAL_TIME_OFFSET ( 2, 0, .AHEAD. ) ;
#77 = AXIS2_PLACEMENT_3D ( 'NONE', #132, #191, #74 ) ;
#78 = CARTESIAN_POINT ( 'NONE',  ( 7.747751104301292600E-014, 4.289559357414339600, -0.1329717517002159400 ) ) ;
#79 = CALENDAR_DATE ( 2018, 21, 12 ) ;
#80 = EDGE_LOOP ( 'NONE', ( #111, #173, #119, #47, #72 ) ) ;
#81 = DESIGN_CONTEXT ( 'detailed design', #86, 'design' ) ;
#82 = SECURITY_CLASSIFICATION_LEVEL ( 'unclassified' ) ;
#83 = EDGE_CURVE ( 'NONE', #11, #220, #205, .T. ) ;
#84 = LOCAL_TIME ( 8, 48, 37.00000000000000000, #170 ) ;
#85 =( NAMED_UNIT ( * ) SI_UNIT ( $, .STERADIAN. ) SOLID_ANGLE_UNIT ( ) );
#86 = APPLICATION_CONTEXT ( 'configuration controlled 3d designs of mechanical parts and assemblies' ) ;
#87 = PERSON_AND_ORGANIZATION ( #223, #214 ) ;
#88 = CC_DESIGN_DATE_AND_TIME_ASSIGNMENT ( #161, #196, ( #19 ) ) ;
#89 = CARTESIAN_POINT ( 'NONE',  ( 8.210964589059997800E-014, -12.70000000000002800, 0.3890152599336457200 ) ) ;
#90 = COORDINATED_UNIVERSAL_TIME_OFFSET ( 2, 0, .AHEAD. ) ;
#91 = CLOSED_SHELL ( 'NONE', ( #95, #100, #115, #188, #25 ) ) ;
#92 = ORIENTED_EDGE ( 'NONE', *, *, #208, .F. ) ;
#93 = AXIS2_PLACEMENT_3D ( 'NONE', #145, #160, #55 ) ;
#94 = ORIENTED_EDGE ( 'NONE', *, *, #83, .T. ) ;
#95 = ADVANCED_FACE ( 'NONE', ( #97 ), #194, .T. ) ;
#96 = CARTESIAN_POINT ( 'NONE',  ( -4.253887569359458900, -12.85220597256698100, 0.3984046376302814400 ) ) ;
#97 = FACE_OUTER_BOUND ( 'NONE', #38, .T. ) ;
#98 = ADVANCED_BREP_SHAPE_REPRESENTATION ( '110-0243E BK7 pl-cx 25.4 F400', ( #169, #63 ), #71 ) ;
#99 = DIRECTION ( 'NONE',  ( 1.000000000000000000, 0.0000000000000000000, 0.0000000000000000000 ) ) ;
#100 = ADVANCED_FACE ( 'NONE', ( #67 ), #163, .T. ) ;
#101 = CARTESIAN_POINT ( 'NONE',  ( -12.75157344389949400, 12.85220597256699900, 0.7913446990098771400 ) ) ;
#102 = EDGE_CURVE ( 'NONE', #220, #140, #66, .T. ) ;
#103 = CC_DESIGN_APPROVAL ( #41, ( #19 ) ) ;
#104 = CARTESIAN_POINT ( 'NONE',  ( -4.264802093766044200, 4.289559357414337800, -0.1329717517002351700 ) ) ;
#105 = DIRECTION ( 'NONE',  ( 0.0000000000000000000, 0.0000000000000000000, 1.000000000000000000 ) ) ;
#106 = ORIENTED_EDGE ( 'NONE', *, *, #159, .F. ) ;
#107 = APPLICATION_PROTOCOL_DEFINITION ( 'international standard', 'config_control_design', 1994, #175 ) ;
#108 = PERSON_AND_ORGANIZATION_ROLE ( 'classification_officer' ) ;
#109 = EDGE_LOOP ( 'NONE', ( #20, #225 ) ) ;
#110 = CIRCLE ( 'NONE', #68, 12.69999999999999900 ) ;
#111 = ORIENTED_EDGE ( 'NONE', *, *, #185, .F. ) ;
#112 = CARTESIAN_POINT ( 'NONE',  ( -12.75157344389948700, -12.85220597256698300, 0.7913446990098771400 ) ) ;
#113 = DIRECTION ( 'NONE',  ( 1.000000000000000000, 0.0000000000000000000, 0.0000000000000000000 ) ) ;
#114 = CARTESIAN_POINT ( 'NONE',  ( 4.253887569359481100, -12.85220597256697800, 0.3984046376303018200 ) ) ;
#115 = ADVANCED_FACE ( 'NONE', ( #199 ), #24, .T. ) ;
#116 = CARTESIAN_POINT ( 'NONE',  ( -12.78429113032313700, 4.289559357414336000, 0.2609765060221933000 ) ) ;
#117 = VERTEX_POINT ( 'NONE', #43 ) ;
#118 = SECURITY_CLASSIFICATION ( '', '', #82 ) ;
#119 = ORIENTED_EDGE ( 'NONE', *, *, #102, .F. ) ;
#120 = DIRECTION ( 'NONE',  ( 0.0000000000000000000, 0.0000000000000000000, 1.000000000000000000 ) ) ;
#121 = CC_DESIGN_PERSON_AND_ORGANIZATION_ASSIGNMENT ( #229, #176, ( #19 ) ) ;
#122 = PERSON_AND_ORGANIZATION ( #223, #214 ) ;
#123 = APPROVAL ( #1, 'UNSPECIFIED' ) ;
#124 = DIRECTION ( 'NONE',  ( 1.000000000000000000, 8.881784197001252300E-016, 0.0000000000000000000 ) ) ;
#125 = CIRCLE ( 'NONE', #53, 12.69999999999999900 ) ;
#126 = CARTESIAN_POINT ( 'NONE',  ( -8.505756902866364700, -12.85220597256698100, 0.5294260997452632200 ) ) ;
#127 = DIRECTION ( 'NONE',  ( 1.000000000000000000, 0.0000000000000000000, 0.0000000000000000000 ) ) ;
#128 = CARTESIAN_POINT ( 'NONE',  ( 7.495064338573637500E-014, 12.85220597256700300, 0.3984046376303007600 ) ) ;
#129 = CARTESIAN_POINT ( 'NONE',  ( 4.996003610813200500E-016, 2.442490654175340100E-015, 0.3890152599336410000 ) ) ;
#130 = CARTESIAN_POINT ( 'NONE',  ( 8.527580773337497500, 4.289559357414342200, -0.001614117807603504500 ) ) ;
#131 = CARTESIAN_POINT ( 'NONE',  ( 2.602085213965211000E-014, 4.289559357414339600, -0.1329717517002352600 ) ) ;
#132 = CARTESIAN_POINT ( 'NONE',  ( 4.996003610813200500E-016, 2.442490654175340100E-015, 3.000000000000000000 ) ) ;
#133 = DATE_AND_TIME ( #52, #178 ) ;
#134 = CARTESIAN_POINT ( 'NONE',  ( -4.253887569359466000, 12.85220597256700100, 0.3984046376302814400 ) ) ;
#135 = APPROVAL_PERSON_ORGANIZATION ( #182, #41, #172 ) ;
#136 = ORIENTED_EDGE ( 'NONE', *, *, #83, .F. ) ;
#137 = CC_DESIGN_APPROVAL ( #227, ( #200 ) ) ;
#138 = DATE_TIME_ROLE ( 'classification_date' ) ;
#139 = APPROVAL_DATE_TIME ( #48, #123 ) ;
#140 = VERTEX_POINT ( 'NONE', #89 ) ;
#141 = PERSON_AND_ORGANIZATION_ROLE ( 'creator' ) ;
#142 = APPROVAL_PERSON_ORGANIZATION ( #122, #227, #65 ) ;
#143 = ORIENTED_EDGE ( 'NONE', *, *, #222, .T. ) ;
#144 = CALENDAR_DATE ( 2018, 21, 12 ) ;
#145 = CARTESIAN_POINT ( 'NONE',  ( 0.0000000000000000000, 26.11199999999999800, 3.000000000000000000 ) ) ;
#146 = CARTESIAN_POINT ( 'NONE',  ( 4.996003610813200500E-016, 2.442490654175340100E-015, 0.3890152599336410000 ) ) ;
#147 = COORDINATED_UNIVERSAL_TIME_OFFSET ( 2, 0, .AHEAD. ) ;
#148 = DIRECTION ( 'NONE',  ( -0.0000000000000000000, -0.0000000000000000000, -1.000000000000000000 ) ) ;
#149 = AXIS2_PLACEMENT_3D ( 'NONE', #187, #148, #99 ) ;
#150 = FACE_OUTER_BOUND ( 'NONE', #80, .T. ) ;
#151 = CARTESIAN_POINT ( 'NONE',  ( 2.428612866367529900E-014, 12.85220597256700300, 0.3984046376302814400 ) ) ;
#152 = DIRECTION ( 'NONE',  ( 1.000000000000000000, 0.0000000000000000000, 0.0000000000000000000 ) ) ;
#153 = APPROVAL_DATE_TIME ( #64, #41 ) ;
#154 = VECTOR ( 'NONE', #120, 1000.000000000000000 ) ;
#155 = CC_DESIGN_PERSON_AND_ORGANIZATION_ASSIGNMENT ( #3, #37, ( #171 ) ) ;
#156 =( NAMED_UNIT ( * ) PLANE_ANGLE_UNIT ( ) SI_UNIT ( $, .RADIAN. ) );
#157 = EDGE_LOOP ( 'NONE', ( #54, #26, #201 ) ) ;
#158 = DIRECTION ( 'NONE',  ( 0.0000000000000000000, 0.0000000000000000000, 1.000000000000000000 ) ) ;
#159 = EDGE_CURVE ( 'NONE', #220, #235, #56, .T. ) ;
#160 = DIRECTION ( 'NONE',  ( 0.0000000000000000000, 0.0000000000000000000, 1.000000000000000000 ) ) ;
#161 = DATE_AND_TIME ( #219, #31 ) ;
#162 = CARTESIAN_POINT ( 'NONE',  ( 4.996003610813200500E-016, 2.442490654175340100E-015, 0.3890152599336410000 ) ) ;
#163 = CYLINDRICAL_SURFACE ( 'NONE', #62, 12.69999999999999900 ) ;
#164 = CARTESIAN_POINT ( 'NONE',  ( 7.499554632345841900E-014, 12.70000000000003100, 0.3890152599336457200 ) ) ;
#165 = CARTESIAN_POINT ( 'NONE',  ( 2.842170943040400100E-014, 0.0000000000000000000, 207.5000000000000300 ) ) ;
#166 = CC_DESIGN_PERSON_AND_ORGANIZATION_ASSIGNMENT ( #14, #108, ( #118 ) ) ;
#167 = DIRECTION ( 'NONE',  ( 1.000000000000000000, 0.0000000000000000000, 0.0000000000000000000 ) ) ;
#168 = CARTESIAN_POINT ( 'NONE',  ( 12.75157344389932000, 12.85220597256700600, 0.7913446990098844700 ) ) ;
#169 = MANIFOLD_SOLID_BREP ( 'Imported1', #91 ) ;
#170 = COORDINATED_UNIVERSAL_TIME_OFFSET ( 2, 0, .AHEAD. ) ;
#171 = PRODUCT ( '110-0243E BK7 pl-cx 25.4 F400', '110-0243E BK7 pl-cx 25.4 F400', '', ( #21 ) ) ;
#172 = APPROVAL_ROLE ( '' ) ;
#173 = ORIENTED_EDGE ( 'NONE', *, *, #34, .F. ) ;
#174 = AXIS2_PLACEMENT_3D ( 'NONE', #162, #184, #127 ) ;
#175 = APPLICATION_CONTEXT ( 'configuration controlled 3d designs of mechanical parts and assemblies' ) ;
#176 = PERSON_AND_ORGANIZATION_ROLE ( 'creator' ) ;
#177 = APPROVAL_ROLE ( '' ) ;
#178 = LOCAL_TIME ( 8, 48, 37.00000000000000000, #2 ) ;
#179 = CIRCLE ( 'NONE', #77, 12.69999999999999900 ) ;
#180 = EDGE_LOOP ( 'NONE', ( #92, #45, #143, #106, #136 ) ) ;
#181 = DIRECTION ( 'NONE',  ( -0.0000000000000000000, -0.0000000000000000000, -1.000000000000000000 ) ) ;
#182 = PERSON_AND_ORGANIZATION ( #223, #214 ) ;
#183 = CIRCLE ( 'NONE', #149, 12.69999999999999900 ) ;
#184 = DIRECTION ( 'NONE',  ( -0.0000000000000000000, -0.0000000000000000000, -1.000000000000000000 ) ) ;
#185 = EDGE_CURVE ( 'NONE', #193, #117, #61, .T. ) ;
#186 = PERSON_AND_ORGANIZATION ( #223, #214 ) ;
#187 = CARTESIAN_POINT ( 'NONE',  ( 4.996003610813200500E-016, 2.442490654175340100E-015, 3.000000000000000000 ) ) ;
#188 = ADVANCED_FACE ( 'NONE', ( #150 ), #198, .T. ) ;
#189 = CARTESIAN_POINT ( 'NONE',  ( 4.264802093766058500, -4.289559357414315600, -0.1329717517002139700 ) ) ;
#190 = ORIENTED_EDGE ( 'NONE', *, *, #49, .T. ) ;
#191 = DIRECTION ( 'NONE',  ( -0.0000000000000000000, -0.0000000000000000000, -1.000000000000000000 ) ) ;
#192 = CARTESIAN_POINT ( 'NONE',  ( 7.988037343417900700E-014, -4.289559357414316500, -0.1329717517002149700 ) ) ;
#193 = VERTEX_POINT ( 'NONE', #202 ) ;
#194 =( BOUNDED_SURFACE ( )  B_SPLINE_SURFACE ( 3, 3, ( 
 ( #58, #114, #204, #29 ),
 ( #192, #189, #226, #12 ),
 ( #78, #230, #130, #73 ),
 ( #128, #30, #224, #168 ) ),
 .UNSPECIFIED., .F., .F., .T. ) 
 B_SPLINE_SURFACE_WITH_KNOTS ( ( 4, 4 ),
 ( 4, 4 ),
 ( 0.0000000000000000000, 1.000000000000000000 ),
 ( 0.0000000000000000000, 1.000000000000000000 ),
 .UNSPECIFIED. ) 
 GEOMETRIC_REPRESENTATION_ITEM ( )  RATIONAL_B_SPLINE_SURFACE ( (
 ( 1.000000000000000000, 0.9996837033075151000, 0.9996837033075151000, 1.000000000000000000),
 ( 0.9987199850999829400, 0.9984040932719772100, 0.9984040932719772100, 0.9987199850999829400),
 ( 0.9987199850999829400, 0.9984040932719772100, 0.9984040932719772100, 0.9987199850999829400),
 ( 1.000000000000000000, 0.9996837033075151000, 0.9996837033075151000, 1.000000000000000000) ) ) 
 REPRESENTATION_ITEM ( '' )  SURFACE ( )  );
#195 = CARTESIAN_POINT ( 'NONE',  ( -12.78429113032313500, -4.289559357414320000, 0.2609765060221943000 ) ) ;
#196 = DATE_TIME_ROLE ( 'creation_date' ) ;
#197 = PRODUCT_RELATED_PRODUCT_CATEGORY ( 'detail', '', ( #171 ) ) ;
#198 = CYLINDRICAL_SURFACE ( 'NONE', #216, 12.69999999999999900 ) ;
#199 = FACE_OUTER_BOUND ( 'NONE', #157, .T. ) ;
#200 = PRODUCT_DEFINITION_FORMATION_WITH_SPECIFIED_SOURCE ( 'ANY', '', #171, .NOT_KNOWN. ) ;
#201 = ORIENTED_EDGE ( 'NONE', *, *, #208, .T. ) ;
#202 = CARTESIAN_POINT ( 'NONE',  ( -12.69999999999999900, 3.997792089092478900E-015, 0.3890152599336410000 ) ) ;
#203 = FACE_OUTER_BOUND ( 'NONE', #109, .T. ) ;
#204 = CARTESIAN_POINT ( 'NONE',  ( 8.505756902866295400, -12.85220597256697800, 0.5294260997452807600 ) ) ;
#205 = CIRCLE ( 'NONE', #231, 12.69999999999999900 ) ;
#206 = CARTESIAN_POINT ( 'NONE',  ( 4.996003610813200500E-016, 2.442490654175340100E-015, 0.3890152599336410000 ) ) ;
#207 = UNCERTAINTY_MEASURE_WITH_UNIT (LENGTH_MEASURE( 1.000000000000000100E-005 ), #33, 'distance_accuracy_value', 'NONE');
#208 = EDGE_CURVE ( 'NONE', #193, #11, #110, .T. ) ;
#209 = CARTESIAN_POINT ( 'NONE',  ( 0.0000000000000000000, 0.0000000000000000000, 0.0000000000000000000 ) ) ;
#210 = DIRECTION ( 'NONE',  ( 2.800826601236829100E-016, -1.000000000000000000, 0.0000000000000000000 ) ) ;
#211 = SHAPE_DEFINITION_REPRESENTATION ( #35, #98 ) ;
#212 = CC_DESIGN_APPROVAL ( #123, ( #118 ) ) ;
#213 = APPROVAL_STATUS ( 'not_yet_approved' ) ;
#214 = ORGANIZATION ( 'UNSPECIFIED', 'UNSPECIFIED', '' ) ;
#215 = CARTESIAN_POINT ( 'NONE',  ( -8.527580773337575700, -4.289559357414319200, -0.001614117807620255600 ) ) ;
#216 = AXIS2_PLACEMENT_3D ( 'NONE', #6, #158, #70 ) ;
#217 = PERSON_AND_ORGANIZATION ( #223, #214 ) ;
#218 = PERSON_AND_ORGANIZATION_ROLE ( 'design_supplier' ) ;
#219 = CALENDAR_DATE ( 2018, 21, 12 ) ;
#220 = VERTEX_POINT ( 'NONE', #40 ) ;
#221 = APPROVAL_PERSON_ORGANIZATION ( #217, #123, #177 ) ;
#222 = EDGE_CURVE ( 'NONE', #117, #235, #179, .T. ) ;
#223 = PERSON ( 'UNSPECIFIED', 'UNSPECIFIED', 'UNSPECIFIED', ('UNSPECIFIED'), ('UNSPECIFIED'), ('UNSPECIFIED') ) ;
#224 = CARTESIAN_POINT ( 'NONE',  ( 8.505756902866288300, 12.85220597256700600, 0.5294260997452807600 ) ) ;
#225 = ORIENTED_EDGE ( 'NONE', *, *, #222, .F. ) ;
#226 = CARTESIAN_POINT ( 'NONE',  ( 8.527580773337501100, -4.289559357414313800, -0.001614117807602529100 ) ) ;
#227 = APPROVAL ( #213, 'UNSPECIFIED' ) ;
#228 = DIRECTION ( 'NONE',  ( 1.000000000000000000, -1.776356839400250500E-015, 0.0000000000000000000 ) ) ;
#229 = PERSON_AND_ORGANIZATION ( #223, #214 ) ;
#230 = CARTESIAN_POINT ( 'NONE',  ( 4.264802093766055800, 4.289559357414340500, -0.1329717517002149400 ) ) ;
#231 = AXIS2_PLACEMENT_3D ( 'NONE', #129, #59, #228 ) ;
#232 = LOCAL_TIME ( 8, 48, 37.00000000000000000, #147 ) ;
#233 = ORIENTED_EDGE ( 'NONE', *, *, #102, .T. ) ;
#234 = CARTESIAN_POINT ( 'NONE',  ( 2.775557561562891400E-014, -4.289559357414316500, -0.1329717517002344000 ) ) ;
#235 = VERTEX_POINT ( 'NONE', #8 ) ;
ENDSEC;
END-ISO-10303-21;
