ISO-10303-21;
HEADER;
FILE_DESCRIPTION (( 'STEP AP203' ),
    '1' );
FILE_NAME ('110-0241E BK7 pl-cx 25.4 F350.STEP',
    '2018-12-21T06:48:52',
    ( '' ),
    ( '' ),
    'SwSTEP 2.0',
    'SolidWorks 2017',
    '' );
FILE_SCHEMA (( 'CONFIG_CONTROL_DESIGN' ));
ENDSEC;

DATA;
#1 = CC_DESIGN_PERSON_AND_ORGANIZATION_ASSIGNMENT ( #140, #56, ( #224 ) ) ;
#2 = COORDINATED_UNIVERSAL_TIME_OFFSET ( 2, 0, .AHEAD. ) ;
#3 = FACE_OUTER_BOUND ( 'NONE', #159, .T. ) ;
#4 =( BOUNDED_SURFACE ( )  B_SPLINE_SURFACE ( 3, 3, ( 
 ( #181, #93, #212, #135 ),
 ( #15, #36, #77, #117 ),
 ( #233, #137, #19, #133 ),
 ( #14, #148, #34, #162 ) ),
 .UNSPECIFIED., .F., .F., .F. ) 
 B_SPLINE_SURFACE_WITH_KNOTS ( ( 4, 4 ),
 ( 4, 4 ),
 ( 0.0000000000000000000, 1.000000000000000000 ),
 ( 0.0000000000000000000, 1.000000000000000000 ),
 .UNSPECIFIED. ) 
 GEOMETRIC_REPRESENTATION_ITEM ( )  RATIONAL_B_SPLINE_SURFACE ( (
 ( 1.000000000000000000, 0.9995869002860526800, 0.9995869002860526800, 1.000000000000000000),
 ( 0.9983283581846829100, 0.9979159490254913000, 0.9979159490254913000, 0.9983283581846829100),
 ( 0.9983283581846829100, 0.9979159490254913000, 0.9979159490254913000, 0.9983283581846829100),
 ( 1.000000000000000000, 0.9995869002860526800, 0.9995869002860526800, 1.000000000000000000) ) ) 
 REPRESENTATION_ITEM ( '' )  SURFACE ( )  );
#5 = PRODUCT_DEFINITION ( 'UNKNOWN', '', #153, #105 ) ;
#6 = CYLINDRICAL_SURFACE ( 'NONE', #150, 12.69999999999999900 ) ;
#7 = APPROVAL ( #38, 'UNSPECIFIED' ) ;
#8 = DIRECTION ( 'NONE',  ( -0.0000000000000000000, -0.0000000000000000000, -1.000000000000000000 ) ) ;
#9 = DATE_AND_TIME ( #223, #209 ) ;
#10 = EDGE_LOOP ( 'NONE', ( #180, #125, #108 ) ) ;
#11 = CARTESIAN_POINT ( 'NONE',  ( 4.996003610813200500E-016, 2.442490654175340100E-015, 3.000000000000000000 ) ) ;
#12 = CARTESIAN_POINT ( 'NONE',  ( 12.69999999999999900, 2.442490654175340100E-015, 3.000000000000000000 ) ) ;
#13 = ORIENTED_EDGE ( 'NONE', *, *, #35, .T. ) ;
#14 = CARTESIAN_POINT ( 'NONE',  ( 1.045759911686451700E-013, 12.85214656502513200, 0.4553552304923658100 ) ) ;
#15 = CARTESIAN_POINT ( 'NONE',  ( 1.104267997840316300E-013, -4.291222241546155800, -0.1520392319685036400 ) ) ;
#16 = ORIENTED_EDGE ( 'NONE', *, *, #48, .T. ) ;
#17 = CARTESIAN_POINT ( 'NONE',  ( -12.69999999999999900, 3.997792089092478900E-015, 0.4446247002314300300 ) ) ;
#18 = PERSON_AND_ORGANIZATION_ROLE ( 'creator' ) ;
#19 = CARTESIAN_POINT ( 'NONE',  ( 8.530680631461267500, 4.291222241546172700, -0.001860286609684837000 ) ) ;
#20 =( NAMED_UNIT ( * ) PLANE_ANGLE_UNIT ( ) SI_UNIT ( $, .RADIAN. ) );
#21 = ORIENTED_EDGE ( 'NONE', *, *, #47, .F. ) ;
#22 = CC_DESIGN_PERSON_AND_ORGANIZATION_ASSIGNMENT ( #170, #98, ( #153 ) ) ;
#23 = ADVANCED_BREP_SHAPE_REPRESENTATION ( '110-0241E BK7 pl-cx 25.4 F350', ( #71, #183 ), #229 ) ;
#24 = LOCAL_TIME ( 8, 48, 52.00000000000000000, #207 ) ;
#25 = PRODUCT ( '110-0241E BK7 pl-cx 25.4 F350', '110-0241E BK7 pl-cx 25.4 F350', '', ( #97 ) ) ;
#26 = APPROVAL_PERSON_ORGANIZATION ( #95, #172, #136 ) ;
#27 = UNCERTAINTY_MEASURE_WITH_UNIT (LENGTH_MEASURE( 1.000000000000000100E-005 ), #189, 'distance_accuracy_value', 'NONE');
#28 = CLOSED_SHELL ( 'NONE', ( #231, #163, #75, #116, #166 ) ) ;
#29 = DATE_AND_TIME ( #89, #84 ) ;
#30 = CARTESIAN_POINT ( 'NONE',  ( -4.252403537777330400, -12.85214656502511900, 0.4553552304923489400 ) ) ;
#31 = CARTESIAN_POINT ( 'NONE',  ( 6.938893903907228400E-014, -12.85214656502511800, 0.4553552304923504900 ) ) ;
#32 = LINE ( 'NONE', #107, #141 ) ;
#33 = CARTESIAN_POINT ( 'NONE',  ( 1.046311208376230700E-013, 12.70000000000003700, 0.4446247002314315200 ) ) ;
#34 = CARTESIAN_POINT ( 'NONE',  ( 8.502172075527218100, 12.85214656502513400, 0.6050322950460242900 ) ) ;
#35 = EDGE_CURVE ( 'NONE', #59, #62, #132, .T. ) ;
#36 = CARTESIAN_POINT ( 'NONE',  ( 4.266662233441799400, -4.291222241546153200, -0.1520392319685010800 ) ) ;
#37 = CARTESIAN_POINT ( 'NONE',  ( 1.127598414333382300E-013, -12.70000000000002100, 0.4446247002314315200 ) ) ;
#38 = APPROVAL_STATUS ( 'not_yet_approved' ) ;
#39 = DATE_AND_TIME ( #86, #24 ) ;
#40 = AXIS2_PLACEMENT_3D ( 'NONE', #11, #147, #143 ) ;
#41 = ORGANIZATION ( 'UNSPECIFIED', 'UNSPECIFIED', '' ) ;
#42 = CARTESIAN_POINT ( 'NONE',  ( 0.0000000000000000000, 0.0000000000000000000, 0.0000000000000000000 ) ) ;
#43 = APPROVAL_DATE_TIME ( #45, #7 ) ;
#44 = AXIS2_PLACEMENT_3D ( 'NONE', #179, #8, #65 ) ;
#45 = DATE_AND_TIME ( #145, #187 ) ;
#46 = CIRCLE ( 'NONE', #54, 12.69999999999999900 ) ;
#47 = EDGE_CURVE ( 'NONE', #155, #59, #32, .T. ) ;
#48 = EDGE_CURVE ( 'NONE', #73, #87, #220, .T. ) ;
#49 = CYLINDRICAL_SURFACE ( 'NONE', #215, 12.69999999999999900 ) ;
#50 = CARTESIAN_POINT ( 'NONE',  ( -8.530680631461214200, -4.291222241546157600, -0.001860286609709719200 ) ) ;
#51 = DIRECTION ( 'NONE',  ( 1.000000000000000000, 0.0000000000000000000, 0.0000000000000000000 ) ) ;
#52 = DIRECTION ( 'NONE',  ( 1.000000000000000000, 0.0000000000000000000, 0.0000000000000000000 ) ) ;
#53 = DIRECTION ( 'NONE',  ( 1.000000000000000000, 0.0000000000000000000, 0.0000000000000000000 ) ) ;
#54 = AXIS2_PLACEMENT_3D ( 'NONE', #182, #199, #151 ) ;
#55 = CARTESIAN_POINT ( 'NONE',  ( 0.0000000000000000000, 26.11199999999999800, 3.000000000000000000 ) ) ;
#56 = PERSON_AND_ORGANIZATION_ROLE ( 'classification_officer' ) ;
#57 = ORIENTED_EDGE ( 'NONE', *, *, #202, .T. ) ;
#58 = DIRECTION ( 'NONE',  ( 1.000000000000000000, 0.0000000000000000000, 0.0000000000000000000 ) ) ;
#59 = VERTEX_POINT ( 'NONE', #127 ) ;
#60 = EDGE_CURVE ( 'NONE', #62, #59, #115, .T. ) ;
#61 = PERSON_AND_ORGANIZATION ( #204, #41 ) ;
#62 = VERTEX_POINT ( 'NONE', #12 ) ;
#63 =( BOUNDED_SURFACE ( )  B_SPLINE_SURFACE ( 3, 3, ( 
 ( #156, #177, #30, #31 ),
 ( #70, #50, #69, #225 ),
 ( #130, #128, #195, #226 ),
 ( #72, #196, #134, #165 ) ),
 .UNSPECIFIED., .F., .F., .F. ) 
 B_SPLINE_SURFACE_WITH_KNOTS ( ( 4, 4 ),
 ( 4, 4 ),
 ( 0.0000000000000000000, 1.000000000000000000 ),
 ( 0.0000000000000000000, 1.000000000000000000 ),
 .UNSPECIFIED. ) 
 GEOMETRIC_REPRESENTATION_ITEM ( )  RATIONAL_B_SPLINE_SURFACE ( (
 ( 1.000000000000000000, 0.9995869002860526800, 0.9995869002860526800, 1.000000000000000000),
 ( 0.9983283581846829100, 0.9979159490254913000, 0.9979159490254913000, 0.9983283581846829100),
 ( 0.9983283581846829100, 0.9979159490254913000, 0.9979159490254913000, 0.9983283581846829100),
 ( 1.000000000000000000, 0.9995869002860526800, 0.9995869002860526800, 1.000000000000000000) ) ) 
 REPRESENTATION_ITEM ( '' )  SURFACE ( )  );
#64 = ORIENTED_EDGE ( 'NONE', *, *, #157, .F. ) ;
#65 = DIRECTION ( 'NONE',  ( 1.000000000000000000, -8.881784197001252300E-016, 0.0000000000000000000 ) ) ;
#66 = ORIENTED_EDGE ( 'NONE', *, *, #210, .F. ) ;
#67 = DIRECTION ( 'NONE',  ( -0.0000000000000000000, -0.0000000000000000000, -1.000000000000000000 ) ) ;
#68 = CC_DESIGN_DATE_AND_TIME_ASSIGNMENT ( #39, #185, ( #224 ) ) ;
#69 = CARTESIAN_POINT ( 'NONE',  ( -4.266662233441683000, -4.291222241546155800, -0.1520392319685204000 ) ) ;
#70 = CARTESIAN_POINT ( 'NONE',  ( -12.78677079971706300, -4.291222241546159400, 0.2983114874697994100 ) ) ;
#71 = MANIFOLD_SOLID_BREP ( 'Imported1', #28 ) ;
#72 = CARTESIAN_POINT ( 'NONE',  ( -12.74403887874757600, 12.85214656502512800, 0.9042009294956410100 ) ) ;
#73 = VERTEX_POINT ( 'NONE', #33 ) ;
#74 = DIRECTION ( 'NONE',  ( 0.0000000000000000000, 0.0000000000000000000, 1.000000000000000000 ) ) ;
#75 = ADVANCED_FACE ( 'NONE', ( #192 ), #63, .T. ) ;
#76 = DIRECTION ( 'NONE',  ( 1.000000000000000000, 0.0000000000000000000, 0.0000000000000000000 ) ) ;
#77 = CARTESIAN_POINT ( 'NONE',  ( 8.530680631461271100, -4.291222241546152300, -0.001860286609685433300 ) ) ;
#78 = CARTESIAN_POINT ( 'NONE',  ( 0.0000000000000000000, 1.421085471520200100E-014, 181.6000000000000200 ) ) ;
#79 = PERSON_AND_ORGANIZATION_ROLE ( 'design_supplier' ) ;
#80 = AXIS2_PLACEMENT_3D ( 'NONE', #91, #90, #53 ) ;
#81 = COORDINATED_UNIVERSAL_TIME_OFFSET ( 2, 0, .AHEAD. ) ;
#82 = SECURITY_CLASSIFICATION_LEVEL ( 'unclassified' ) ;
#83 = ORIENTED_EDGE ( 'NONE', *, *, #35, .F. ) ;
#84 = LOCAL_TIME ( 8, 48, 52.00000000000000000, #120 ) ;
#85 = CC_DESIGN_APPROVAL ( #175, ( #224 ) ) ;
#86 = CALENDAR_DATE ( 2018, 21, 12 ) ;
#87 = VERTEX_POINT ( 'NONE', #213 ) ;
#88 = DIRECTION ( 'NONE',  ( 1.000000000000000000, 3.200283699100450000E-016, 6.000124531530780400E-016 ) ) ;
#89 = CALENDAR_DATE ( 2018, 21, 12 ) ;
#90 = DIRECTION ( 'NONE',  ( -0.0000000000000000000, -0.0000000000000000000, -1.000000000000000000 ) ) ;
#91 = CARTESIAN_POINT ( 'NONE',  ( 4.996003610813200500E-016, 2.442490654175340100E-015, 0.4446247002314300300 ) ) ;
#92 = CC_DESIGN_SECURITY_CLASSIFICATION ( #224, ( #153 ) ) ;
#93 = CARTESIAN_POINT ( 'NONE',  ( 4.252403537777452100, -12.85214656502511600, 0.4553552304923683700 ) ) ;
#94 = APPLICATION_CONTEXT ( 'configuration controlled 3d designs of mechanical parts and assemblies' ) ;
#95 = PERSON_AND_ORGANIZATION ( #204, #41 ) ;
#96 = CIRCLE ( 'NONE', #227, 181.6000000000000200 ) ;
#97 = MECHANICAL_CONTEXT ( 'NONE', #186, 'mechanical' ) ;
#98 = PERSON_AND_ORGANIZATION_ROLE ( 'creator' ) ;
#99 = ORIENTED_EDGE ( 'NONE', *, *, #144, .F. ) ;
#100 = CIRCLE ( 'NONE', #111, 12.69999999999999900 ) ;
#101 = CC_DESIGN_DATE_AND_TIME_ASSIGNMENT ( #214, #217, ( #5 ) ) ;
#102 = EDGE_LOOP ( 'NONE', ( #99, #123, #13, #64, #206 ) ) ;
#103 = PRODUCT_RELATED_PRODUCT_CATEGORY ( 'detail', '', ( #25 ) ) ;
#104 = LINE ( 'NONE', #110, #149 ) ;
#105 = DESIGN_CONTEXT ( 'detailed design', #94, 'design' ) ;
#106 = DIRECTION ( 'NONE',  ( 0.0000000000000000000, 0.0000000000000000000, 1.000000000000000000 ) ) ;
#107 = CARTESIAN_POINT ( 'NONE',  ( -12.69999999999999900, 3.997792089092478900E-015, 0.4446247002314300300 ) ) ;
#108 = ORIENTED_EDGE ( 'NONE', *, *, #144, .T. ) ;
#109 = DIRECTION ( 'NONE',  ( 3.200283699100447500E-016, -1.000000000000000000, 3.056781455465739200E-016 ) ) ;
#110 = CARTESIAN_POINT ( 'NONE',  ( 12.69999999999999900, 2.442490654175340100E-015, 0.4446247002314300300 ) ) ;
#111 = AXIS2_PLACEMENT_3D ( 'NONE', #216, #113, #52 ) ;
#112 = DIRECTION ( 'NONE',  ( 0.0000000000000000000, 0.0000000000000000000, 1.000000000000000000 ) ) ;
#113 = DIRECTION ( 'NONE',  ( -0.0000000000000000000, -0.0000000000000000000, -1.000000000000000000 ) ) ;
#114 = APPROVAL_PERSON_ORGANIZATION ( #158, #175, #168 ) ;
#115 = CIRCLE ( 'NONE', #40, 12.69999999999999900 ) ;
#116 = ADVANCED_FACE ( 'NONE', ( #200 ), #49, .T. ) ;
#117 = CARTESIAN_POINT ( 'NONE',  ( 12.78677079971705800, -4.291222241546151400, 0.2983114874698192800 ) ) ;
#118 = APPROVAL_ROLE ( '' ) ;
#119 = AXIS2_PLACEMENT_3D ( 'NONE', #55, #112, #160 ) ;
#120 = COORDINATED_UNIVERSAL_TIME_OFFSET ( 2, 0, .AHEAD. ) ;
#121 = ORIENTED_EDGE ( 'NONE', *, *, #60, .T. ) ;
#122 = PERSON_AND_ORGANIZATION ( #204, #41 ) ;
#123 = ORIENTED_EDGE ( 'NONE', *, *, #47, .T. ) ;
#124 = PERSON_AND_ORGANIZATION ( #204, #41 ) ;
#125 = ORIENTED_EDGE ( 'NONE', *, *, #221, .T. ) ;
#126 = CALENDAR_DATE ( 2018, 21, 12 ) ;
#127 = CARTESIAN_POINT ( 'NONE',  ( -12.69999999999999900, 3.997792089092478900E-015, 3.000000000000000000 ) ) ;
#128 = CARTESIAN_POINT ( 'NONE',  ( -8.530680631461216000, 4.291222241546167400, -0.001860286609709069100 ) ) ;
#129 = APPROVAL_PERSON_ORGANIZATION ( #219, #7, #118 ) ;
#130 = CARTESIAN_POINT ( 'NONE',  ( -12.78677079971706500, 4.291222241546168300, 0.2983114874698000200 ) ) ;
#131 = CC_DESIGN_PERSON_AND_ORGANIZATION_ASSIGNMENT ( #124, #232, ( #25 ) ) ;
#132 = CIRCLE ( 'NONE', #178, 12.69999999999999900 ) ;
#133 = CARTESIAN_POINT ( 'NONE',  ( 12.78677079971705600, 4.291222241546175400, 0.2983114874698199500 ) ) ;
#134 = CARTESIAN_POINT ( 'NONE',  ( -4.252403537777337500, 12.85214656502513000, 0.4553552304923491100 ) ) ;
#135 = CARTESIAN_POINT ( 'NONE',  ( 12.74403887874756900, -12.85214656502511400, 0.9042009294956608900 ) ) ;
#136 = APPROVAL_ROLE ( '' ) ;
#137 = CARTESIAN_POINT ( 'NONE',  ( 4.266662233441796700, 4.291222241546171800, -0.1520392319685004200 ) ) ;
#138 = APPROVAL_STATUS ( 'not_yet_approved' ) ;
#139 = CC_DESIGN_APPROVAL ( #7, ( #153 ) ) ;
#140 = PERSON_AND_ORGANIZATION ( #204, #41 ) ;
#141 = VECTOR ( 'NONE', #106, 1000.000000000000000 ) ;
#142 = ORIENTED_EDGE ( 'NONE', *, *, #221, .F. ) ;
#143 = DIRECTION ( 'NONE',  ( 1.000000000000000000, 0.0000000000000000000, 0.0000000000000000000 ) ) ;
#144 = EDGE_CURVE ( 'NONE', #155, #73, #100, .T. ) ;
#145 = CALENDAR_DATE ( 2018, 21, 12 ) ;
#146 = DIRECTION ( 'NONE',  ( 1.000000000000000000, 0.0000000000000000000, 0.0000000000000000000 ) ) ;
#147 = DIRECTION ( 'NONE',  ( -0.0000000000000000000, -0.0000000000000000000, -1.000000000000000000 ) ) ;
#148 = CARTESIAN_POINT ( 'NONE',  ( 4.252403537777444100, 12.85214656502513400, 0.4553552304923683700 ) ) ;
#149 = VECTOR ( 'NONE', #74, 1000.000000000000000 ) ;
#150 = AXIS2_PLACEMENT_3D ( 'NONE', #184, #198, #51 ) ;
#151 = DIRECTION ( 'NONE',  ( 1.000000000000000000, 0.0000000000000000000, 0.0000000000000000000 ) ) ;
#152 = APPLICATION_PROTOCOL_DEFINITION ( 'international standard', 'config_control_design', 1994, #186 ) ;
#153 = PRODUCT_DEFINITION_FORMATION_WITH_SPECIFIED_SOURCE ( 'ANY', '', #25, .NOT_KNOWN. ) ;
#154 = VERTEX_POINT ( 'NONE', #37 ) ;
#155 = VERTEX_POINT ( 'NONE', #17 ) ;
#156 = CARTESIAN_POINT ( 'NONE',  ( -12.74403887874756900, -12.85214656502512100, 0.9042009294956410100 ) ) ;
#157 = EDGE_CURVE ( 'NONE', #87, #62, #104, .T. ) ;
#158 = PERSON_AND_ORGANIZATION ( #204, #41 ) ;
#159 = EDGE_LOOP ( 'NONE', ( #228, #83 ) ) ;
#160 = DIRECTION ( 'NONE',  ( 1.000000000000000000, 0.0000000000000000000, -0.0000000000000000000 ) ) ;
#161 = PRODUCT_DEFINITION_SHAPE ( 'NONE', 'NONE',  #5 ) ;
#162 = CARTESIAN_POINT ( 'NONE',  ( 12.74403887874756000, 12.85214656502513500, 0.9042009294956608900 ) ) ;
#163 = ADVANCED_FACE ( 'NONE', ( #194 ), #6, .T. ) ;
#164 = DIRECTION ( 'NONE',  ( 0.0000000000000000000, 0.0000000000000000000, 1.000000000000000000 ) ) ;
#165 = CARTESIAN_POINT ( 'NONE',  ( 6.245004513516505500E-014, 12.85214656502513200, 0.4553552304923507200 ) ) ;
#166 = ADVANCED_FACE ( 'NONE', ( #3 ), #230, .T. ) ;
#167 = CC_DESIGN_PERSON_AND_ORGANIZATION_ASSIGNMENT ( #122, #18, ( #5 ) ) ;
#168 = APPROVAL_ROLE ( '' ) ;
#169 = DIRECTION ( 'NONE',  ( 0.0000000000000000000, 0.0000000000000000000, 1.000000000000000000 ) ) ;
#170 = PERSON_AND_ORGANIZATION ( #204, #41 ) ;
#171 = EDGE_LOOP ( 'NONE', ( #208, #57, #16 ) ) ;
#172 = APPROVAL ( #201, 'UNSPECIFIED' ) ;
#173 = LOCAL_TIME ( 8, 48, 52.00000000000000000, #191 ) ;
#174 = CIRCLE ( 'NONE', #80, 12.69999999999999900 ) ;
#175 = APPROVAL ( #138, 'UNSPECIFIED' ) ;
#176 = CARTESIAN_POINT ( 'NONE',  ( 4.996003610813200500E-016, 2.442490654175340100E-015, 3.000000000000000000 ) ) ;
#177 = CARTESIAN_POINT ( 'NONE',  ( -8.502172075527166600, -12.85214656502511900, 0.6050322950460000900 ) ) ;
#178 = AXIS2_PLACEMENT_3D ( 'NONE', #176, #67, #146 ) ;
#179 = CARTESIAN_POINT ( 'NONE',  ( 4.996003610813200500E-016, 2.442490654175340100E-015, 0.4446247002314300300 ) ) ;
#180 = ORIENTED_EDGE ( 'NONE', *, *, #202, .F. ) ;
#181 = CARTESIAN_POINT ( 'NONE',  ( 1.128020941987451200E-013, -12.85214656502511800, 0.4553552304923658100 ) ) ;
#182 = CARTESIAN_POINT ( 'NONE',  ( 4.996003610813200500E-016, 2.442490654175340100E-015, 0.4446247002314300300 ) ) ;
#183 = AXIS2_PLACEMENT_3D ( 'NONE', #42, #169, #58 ) ;
#184 = CARTESIAN_POINT ( 'NONE',  ( 4.996003610813200500E-016, 2.442490654175340100E-015, 0.4446247002314300300 ) ) ;
#185 = DATE_TIME_ROLE ( 'classification_date' ) ;
#186 = APPLICATION_CONTEXT ( 'configuration controlled 3d designs of mechanical parts and assemblies' ) ;
#187 = LOCAL_TIME ( 8, 48, 52.00000000000000000, #81 ) ;
#188 = SHAPE_DEFINITION_REPRESENTATION ( #161, #23 ) ;
#189 =( LENGTH_UNIT ( ) NAMED_UNIT ( * ) SI_UNIT ( .MILLI., .METRE. ) );
#190 = ORIENTED_EDGE ( 'NONE', *, *, #157, .T. ) ;
#191 = COORDINATED_UNIVERSAL_TIME_OFFSET ( 2, 0, .AHEAD. ) ;
#192 = FACE_OUTER_BOUND ( 'NONE', #10, .T. ) ;
#193 = APPROVAL_DATE_TIME ( #9, #175 ) ;
#194 = FACE_OUTER_BOUND ( 'NONE', #102, .T. ) ;
#195 = CARTESIAN_POINT ( 'NONE',  ( -4.266662233441684800, 4.291222241546169200, -0.1520392319685196800 ) ) ;
#196 = CARTESIAN_POINT ( 'NONE',  ( -8.502172075527173700, 12.85214656502513000, 0.6050322950460000900 ) ) ;
#197 = CARTESIAN_POINT ( 'NONE',  ( 4.996003610813200500E-016, 2.442490654175340100E-015, 0.4446247002314300300 ) ) ;
#198 = DIRECTION ( 'NONE',  ( 0.0000000000000000000, 0.0000000000000000000, 1.000000000000000000 ) ) ;
#199 = DIRECTION ( 'NONE',  ( -0.0000000000000000000, -0.0000000000000000000, -1.000000000000000000 ) ) ;
#200 = FACE_OUTER_BOUND ( 'NONE', #203, .T. ) ;
#201 = APPROVAL_STATUS ( 'not_yet_approved' ) ;
#202 = EDGE_CURVE ( 'NONE', #154, #73, #96, .T. ) ;
#203 = EDGE_LOOP ( 'NONE', ( #21, #142, #66, #190, #121 ) ) ;
#204 = PERSON ( 'UNSPECIFIED', 'UNSPECIFIED', 'UNSPECIFIED', ('UNSPECIFIED'), ('UNSPECIFIED'), ('UNSPECIFIED') ) ;
#205 = CC_DESIGN_PERSON_AND_ORGANIZATION_ASSIGNMENT ( #61, #79, ( #153 ) ) ;
#206 = ORIENTED_EDGE ( 'NONE', *, *, #48, .F. ) ;
#207 = COORDINATED_UNIVERSAL_TIME_OFFSET ( 2, 0, .AHEAD. ) ;
#208 = ORIENTED_EDGE ( 'NONE', *, *, #210, .T. ) ;
#209 = LOCAL_TIME ( 8, 48, 52.00000000000000000, #2 ) ;
#210 = EDGE_CURVE ( 'NONE', #87, #154, #174, .T. ) ;
#211 = APPROVAL_DATE_TIME ( #29, #172 ) ;
#212 = CARTESIAN_POINT ( 'NONE',  ( 8.502172075527225200, -12.85214656502511600, 0.6050322950460242900 ) ) ;
#213 = CARTESIAN_POINT ( 'NONE',  ( 12.69999999999999900, 2.442490654175340100E-015, 0.4446247002314300300 ) ) ;
#214 = DATE_AND_TIME ( #126, #173 ) ;
#215 = AXIS2_PLACEMENT_3D ( 'NONE', #197, #164, #76 ) ;
#216 = CARTESIAN_POINT ( 'NONE',  ( 4.996003610813200500E-016, 2.442490654175340100E-015, 0.4446247002314300300 ) ) ;
#217 = DATE_TIME_ROLE ( 'creation_date' ) ;
#218 =( NAMED_UNIT ( * ) SI_UNIT ( $, .STERADIAN. ) SOLID_ANGLE_UNIT ( ) );
#219 = PERSON_AND_ORGANIZATION ( #204, #41 ) ;
#220 = CIRCLE ( 'NONE', #44, 12.69999999999999900 ) ;
#221 = EDGE_CURVE ( 'NONE', #154, #155, #46, .T. ) ;
#222 = CC_DESIGN_APPROVAL ( #172, ( #5 ) ) ;
#223 = CALENDAR_DATE ( 2018, 21, 12 ) ;
#224 = SECURITY_CLASSIFICATION ( '', '', #82 ) ;
#225 = CARTESIAN_POINT ( 'NONE',  ( 6.591949208711867000E-014, -4.291222241546154900, -0.1520392319685188500 ) ) ;
#226 = CARTESIAN_POINT ( 'NONE',  ( 6.418476861114186200E-014, 4.291222241546171800, -0.1520392319685181000 ) ) ;
#227 = AXIS2_PLACEMENT_3D ( 'NONE', #78, #88, #109 ) ;
#228 = ORIENTED_EDGE ( 'NONE', *, *, #60, .F. ) ;
#229 =( GEOMETRIC_REPRESENTATION_CONTEXT ( 3 ) GLOBAL_UNCERTAINTY_ASSIGNED_CONTEXT ( ( #27 ) ) GLOBAL_UNIT_ASSIGNED_CONTEXT ( ( #189, #20, #218 ) ) REPRESENTATION_CONTEXT ( 'NONE', 'WORKASPACE' ) );
#230 = PLANE ( 'NONE',  #119 ) ;
#231 = ADVANCED_FACE ( 'NONE', ( #234 ), #4, .T. ) ;
#232 = PERSON_AND_ORGANIZATION_ROLE ( 'design_owner' ) ;
#233 = CARTESIAN_POINT ( 'NONE',  ( 1.076801740662641500E-013, 4.291222241546170900, -0.1520392319685029700 ) ) ;
#234 = FACE_OUTER_BOUND ( 'NONE', #171, .T. ) ;
#235 = APPLICATION_PROTOCOL_DEFINITION ( 'international standard', 'config_control_design', 1994, #94 ) ;
ENDSEC;
END-ISO-10303-21;
