ISO-10303-21;
HEADER;
FILE_DESCRIPTION (( 'STEP AP203' ),
    '1' );
FILE_NAME ('110-0239E BK7 pl-cx 25.4 F300.STEP',
    '2018-12-21T06:49:06',
    ( '' ),
    ( '' ),
    'SwSTEP 2.0',
    'SolidWorks 2017',
    '' );
FILE_SCHEMA (( 'CONFIG_CONTROL_DESIGN' ));
ENDSEC;

DATA;
#1 = APPROVAL_DATE_TIME ( #12, #198 ) ;
#2 = ORIENTED_EDGE ( 'NONE', *, *, #235, .F. ) ;
#3 = CIRCLE ( 'NONE', #145, 155.5999999999999900 ) ;
#4 = AXIS2_PLACEMENT_3D ( 'NONE', #97, #156, #140 ) ;
#5 = CARTESIAN_POINT ( 'NONE',  ( 4.996003610813200500E-016, 2.442490654175340100E-015, 0.5191501183979180300 ) ) ;
#6 = EDGE_LOOP ( 'NONE', ( #195, #161, #44 ) ) ;
#7 = CARTESIAN_POINT ( 'NONE',  ( -12.69999999999999900, 3.997792089092478900E-015, 0.5191501183979180300 ) ) ;
#8 = DIRECTION ( 'NONE',  ( 0.0000000000000000000, 0.0000000000000000000, 1.000000000000000000 ) ) ;
#9 = DIRECTION ( 'NONE',  ( 0.0000000000000000000, 0.0000000000000000000, 1.000000000000000000 ) ) ;
#10 = CARTESIAN_POINT ( 'NONE',  ( 12.73237376492077300, -12.85205454848681200, 1.055277177792080900 ) ) ;
#11 = VECTOR ( 'NONE', #8, 1000.000000000000000 ) ;
#12 = DATE_AND_TIME ( #108, #82 ) ;
#13 = CARTESIAN_POINT ( 'NONE',  ( 4.263256414560599900E-014, -12.70000000000007200, 0.5191501183979361200 ) ) ;
#14 = EDGE_CURVE ( 'NONE', #151, #215, #209, .T. ) ;
#15 = DIRECTION ( 'NONE',  ( 1.000000000000000000, 0.0000000000000000000, 0.0000000000000000000 ) ) ;
#16 = ORIENTED_EDGE ( 'NONE', *, *, #167, .T. ) ;
#17 = CC_DESIGN_PERSON_AND_ORGANIZATION_ASSIGNMENT ( #186, #216, ( #23 ) ) ;
#18 = LOCAL_TIME ( 8, 49, 6.000000000000000000, #183 ) ;
#19 = DIRECTION ( 'NONE',  ( -0.0000000000000000000, -0.0000000000000000000, -1.000000000000000000 ) ) ;
#20 = CARTESIAN_POINT ( 'NONE',  ( 4.269545262691373500, 4.293799312988644700, -0.1776304147057636600 ) ) ;
#21 = VECTOR ( 'NONE', #52, 1000.000000000000000 ) ;
#22 = PERSON_AND_ORGANIZATION ( #122, #41 ) ;
#23 = SECURITY_CLASSIFICATION ( '', '', #73 ) ;
#24 = DIRECTION ( 'NONE',  ( 0.0000000000000000000, 0.0000000000000000000, 1.000000000000000000 ) ) ;
#25 = ADVANCED_FACE ( 'NONE', ( #62 ), #117, .T. ) ;
#26 = CARTESIAN_POINT ( 'NONE',  ( 4.263256414560599900E-014, -12.85205454848681200, 0.5316773358184645500 ) ) ;
#27 = CARTESIAN_POINT ( 'NONE',  ( -4.269545262691332600, -4.293799312988601200, -0.1776304147057586600 ) ) ;
#28 = CARTESIAN_POINT ( 'NONE',  ( -12.69999999999999900, 3.997792089092478900E-015, 0.5191501183979180300 ) ) ;
#29 = DESIGN_CONTEXT ( 'detailed design', #36, 'design' ) ;
#30 = UNCERTAINTY_MEASURE_WITH_UNIT (LENGTH_MEASURE( 1.000000000000000100E-005 ), #123, 'distance_accuracy_value', 'NONE');
#31 = LOCAL_TIME ( 8, 49, 6.000000000000000000, #172 ) ;
#32 = AXIS2_PLACEMENT_3D ( 'NONE', #50, #206, #179 ) ;
#33 = FACE_OUTER_BOUND ( 'NONE', #126, .T. ) ;
#34 = PERSON_AND_ORGANIZATION_ROLE ( 'creator' ) ;
#35 = APPROVAL_PERSON_ORGANIZATION ( #211, #88, #107 ) ;
#36 = APPLICATION_CONTEXT ( 'configuration controlled 3d designs of mechanical parts and assemblies' ) ;
#37 = CC_DESIGN_APPROVAL ( #88, ( #23 ) ) ;
#38 = CARTESIAN_POINT ( 'NONE',  ( 8.496619969957329500, 12.85205454848685300, 0.7063089341096371300 ) ) ;
#39 = CARTESIAN_POINT ( 'NONE',  ( 8.535484892814595900, -4.293799312988601200, -0.002200023056761252600 ) ) ;
#40 = EDGE_CURVE ( 'NONE', #106, #201, #143, .T. ) ;
#41 = ORGANIZATION ( 'UNSPECIFIED', 'UNSPECIFIED', '' ) ;
#42 = CARTESIAN_POINT ( 'NONE',  ( 12.79061371514959900, -4.293799312988603000, 0.3483644581787694900 ) ) ;
#43 = ADVANCED_BREP_SHAPE_REPRESENTATION ( '110-0239E BK7 pl-cx 25.4 F300', ( #54, #45 ), #204 ) ;
#44 = ORIENTED_EDGE ( 'NONE', *, *, #187, .T. ) ;
#45 = AXIS2_PLACEMENT_3D ( 'NONE', #131, #234, #181 ) ;
#46 = CARTESIAN_POINT ( 'NONE',  ( 4.996003610813200500E-016, 2.442490654175340100E-015, 0.5191501183979180300 ) ) ;
#47 = CLOSED_SHELL ( 'NONE', ( #207, #119, #51, #25, #197 ) ) ;
#48 = ORIENTED_EDGE ( 'NONE', *, *, #231, .F. ) ;
#49 = DIRECTION ( 'NONE',  ( 1.000000000000000000, 0.0000000000000000000, 0.0000000000000000000 ) ) ;
#50 = CARTESIAN_POINT ( 'NONE',  ( 4.996003610813200500E-016, 2.442490654175340100E-015, 0.5191501183979180300 ) ) ;
#51 = ADVANCED_FACE ( 'NONE', ( #33 ), #230, .T. ) ;
#52 = DIRECTION ( 'NONE',  ( 0.0000000000000000000, 0.0000000000000000000, 1.000000000000000000 ) ) ;
#53 = DIRECTION ( 'NONE',  ( -0.0000000000000000000, -0.0000000000000000000, -1.000000000000000000 ) ) ;
#54 = MANIFOLD_SOLID_BREP ( 'Imported1', #47 ) ;
#55 = PRODUCT_DEFINITION ( 'UNKNOWN', '', #134, #29 ) ;
#56 = CARTESIAN_POINT ( 'NONE',  ( 4.263256414560599900E-014, 4.263256414560599900E-014, 155.5999999999999900 ) ) ;
#57 =( NAMED_UNIT ( * ) PLANE_ANGLE_UNIT ( ) SI_UNIT ( $, .RADIAN. ) );
#58 = CIRCLE ( 'NONE', #4, 12.69999999999999900 ) ;
#59 = APPROVAL_STATUS ( 'not_yet_approved' ) ;
#60 = PERSON_AND_ORGANIZATION ( #122, #41 ) ;
#61 = CARTESIAN_POINT ( 'NONE',  ( 12.73237376492077500, 12.85205454848685300, 1.055277177792080900 ) ) ;
#62 = FACE_OUTER_BOUND ( 'NONE', #176, .T. ) ;
#63 = CARTESIAN_POINT ( 'NONE',  ( -4.250104592436050800, -12.85205454848681100, 0.5316773358184717600 ) ) ;
#64 = CARTESIAN_POINT ( 'NONE',  ( -8.496619969957288600, 12.85205454848685300, 0.7063089341096345800 ) ) ;
#65 = DIRECTION ( 'NONE',  ( -0.0000000000000000000, -0.0000000000000000000, -1.000000000000000000 ) ) ;
#66 = CIRCLE ( 'NONE', #125, 12.69999999999999900 ) ;
#67 = PRODUCT_DEFINITION_SHAPE ( 'NONE', 'NONE',  #55 ) ;
#68 = APPROVAL_PERSON_ORGANIZATION ( #169, #217, #213 ) ;
#69 = CARTESIAN_POINT ( 'NONE',  ( -4.269545262691332600, 4.293799312988644700, -0.1776304147057561100 ) ) ;
#70 = CARTESIAN_POINT ( 'NONE',  ( 12.69999999999999900, 2.442490654175340100E-015, 3.000000000000000000 ) ) ;
#71 = SHAPE_DEFINITION_REPRESENTATION ( #67, #43 ) ;
#72 = CARTESIAN_POINT ( 'NONE',  ( 4.263256414560599900E-014, -4.293799312988603000, -0.1776304147057661800 ) ) ;
#73 = SECURITY_CLASSIFICATION_LEVEL ( 'unclassified' ) ;
#74 = CARTESIAN_POINT ( 'NONE',  ( 4.996003610813200500E-016, 2.442490654175340100E-015, 3.000000000000000000 ) ) ;
#75 = CC_DESIGN_APPROVAL ( #217, ( #55 ) ) ;
#76 = ORIENTED_EDGE ( 'NONE', *, *, #14, .F. ) ;
#77 = EDGE_CURVE ( 'NONE', #106, #233, #205, .T. ) ;
#78 = APPROVAL_DATE_TIME ( #137, #88 ) ;
#79 = CARTESIAN_POINT ( 'NONE',  ( 12.69999999999999900, 2.442490654175340100E-015, 0.5191501183979180300 ) ) ;
#80 = AXIS2_PLACEMENT_3D ( 'NONE', #157, #154, #49 ) ;
#81 = ORIENTED_EDGE ( 'NONE', *, *, #220, .T. ) ;
#82 = LOCAL_TIME ( 8, 49, 6.000000000000000000, #118 ) ;
#83 = CARTESIAN_POINT ( 'NONE',  ( 12.69999999999999900, 2.442490654175340100E-015, 0.5191501183979180300 ) ) ;
#84 = APPLICATION_PROTOCOL_DEFINITION ( 'international standard', 'config_control_design', 1994, #36 ) ;
#85 = CC_DESIGN_PERSON_AND_ORGANIZATION_ASSIGNMENT ( #177, #196, ( #210 ) ) ;
#86 = DATE_AND_TIME ( #113, #219 ) ;
#87 = EDGE_LOOP ( 'NONE', ( #76, #135, #144, #171, #93 ) ) ;
#88 = APPROVAL ( #91, 'UNSPECIFIED' ) ;
#89 = PERSON_AND_ORGANIZATION_ROLE ( 'design_supplier' ) ;
#90 = APPLICATION_PROTOCOL_DEFINITION ( 'international standard', 'config_control_design', 1994, #168 ) ;
#91 = APPROVAL_STATUS ( 'not_yet_approved' ) ;
#92 = CARTESIAN_POINT ( 'NONE',  ( 4.250104592436095200, 12.85205454848685300, 0.5316773358184644400 ) ) ;
#93 = ORIENTED_EDGE ( 'NONE', *, *, #187, .F. ) ;
#94 = CC_DESIGN_DATE_AND_TIME_ASSIGNMENT ( #112, #103, ( #55 ) ) ;
#95 = LINE ( 'NONE', #7, #21 ) ;
#96 = FACE_OUTER_BOUND ( 'NONE', #150, .T. ) ;
#97 = CARTESIAN_POINT ( 'NONE',  ( 4.996003610813200500E-016, 2.442490654175340100E-015, 0.5191501183979180300 ) ) ;
#98 = CARTESIAN_POINT ( 'NONE',  ( 4.250104592436095200, -12.85205454848681100, 0.5316773358184644400 ) ) ;
#99 = CARTESIAN_POINT ( 'NONE',  ( 4.263256414560599900E-014, 12.70000000000011800, 0.5191501183979361200 ) ) ;
#100 = VERTEX_POINT ( 'NONE', #222 ) ;
#101 = PLANE ( 'NONE',  #193 ) ;
#102 = APPROVAL_PERSON_ORGANIZATION ( #22, #198, #142 ) ;
#103 = DATE_TIME_ROLE ( 'creation_date' ) ;
#104 = ORIENTED_EDGE ( 'NONE', *, *, #220, .F. ) ;
#105 = DIRECTION ( 'NONE',  ( 0.0000000000000000000, -1.000000000000000000, -3.567554706379037700E-016 ) ) ;
#106 = VERTEX_POINT ( 'NONE', #83 ) ;
#107 = APPROVAL_ROLE ( '' ) ;
#108 = CALENDAR_DATE ( 2018, 21, 12 ) ;
#109 = DIRECTION ( 'NONE',  ( 1.000000000000000000, 0.0000000000000000000, 0.0000000000000000000 ) ) ;
#110 = CIRCLE ( 'NONE', #162, 12.69999999999999900 ) ;
#111 = AXIS2_PLACEMENT_3D ( 'NONE', #227, #138, #160 ) ;
#112 = DATE_AND_TIME ( #141, #18 ) ;
#113 = CALENDAR_DATE ( 2018, 21, 12 ) ;
#114 = CARTESIAN_POINT ( 'NONE',  ( -8.535484892814555000, -4.293799312988601200, -0.002200023056763799100 ) ) ;
#115 = AXIS2_PLACEMENT_3D ( 'NONE', #5, #24, #152 ) ;
#116 = CARTESIAN_POINT ( 'NONE',  ( 3.469446951953614200E-015, 4.293799312988644700, -0.1776304147057571300 ) ) ;
#117 = CYLINDRICAL_SURFACE ( 'NONE', #115, 12.69999999999999900 ) ;
#118 = COORDINATED_UNIVERSAL_TIME_OFFSET ( 2, 0, .AHEAD. ) ;
#119 = ADVANCED_FACE ( 'NONE', ( #132 ), #199, .T. ) ;
#120 = CARTESIAN_POINT ( 'NONE',  ( 8.496619969957327700, -12.85205454848681100, 0.7063089341096372400 ) ) ;
#121 = DIRECTION ( 'NONE',  ( 1.000000000000000000, 0.0000000000000000000, -0.0000000000000000000 ) ) ;
#122 = PERSON ( 'UNSPECIFIED', 'UNSPECIFIED', 'UNSPECIFIED', ('UNSPECIFIED'), ('UNSPECIFIED'), ('UNSPECIFIED') ) ;
#123 =( LENGTH_UNIT ( ) NAMED_UNIT ( * ) SI_UNIT ( .MILLI., .METRE. ) );
#124 = COORDINATED_UNIVERSAL_TIME_OFFSET ( 2, 0, .AHEAD. ) ;
#125 = AXIS2_PLACEMENT_3D ( 'NONE', #74, #53, #109 ) ;
#126 = EDGE_LOOP ( 'NONE', ( #48, #16, #191 ) ) ;
#127 = MECHANICAL_CONTEXT ( 'NONE', #168, 'mechanical' ) ;
#128 =( BOUNDED_SURFACE ( )  B_SPLINE_SURFACE ( 3, 3, ( 
 ( #26, #98, #120, #10 ),
 ( #72, #202, #39, #42 ),
 ( #203, #20, #218, #163 ),
 ( #130, #92, #38, #61 ) ),
 .UNSPECIFIED., .F., .F., .F. ) 
 B_SPLINE_SURFACE_WITH_KNOTS ( ( 4, 4 ),
 ( 4, 4 ),
 ( 0.0000000000000000000, 1.000000000000000000 ),
 ( 0.0000000000000000000, 1.000000000000000000 ),
 .UNSPECIFIED. ) 
 GEOMETRIC_REPRESENTATION_ITEM ( )  RATIONAL_B_SPLINE_SURFACE ( (
 ( 1.000000000000000000, 0.9994369997511422000, 0.9994369997511422000, 1.000000000000000000),
 ( 0.9977220336940082500, 0.9971603159407476100, 0.9971603159407476100, 0.9977220336940082500),
 ( 0.9977220336940082500, 0.9971603159407476100, 0.9971603159407476100, 0.9977220336940082500),
 ( 1.000000000000000000, 0.9994369997511422000, 0.9994369997511422000, 1.000000000000000000) ) ) 
 REPRESENTATION_ITEM ( '' )  SURFACE ( )  );
#129 = EDGE_CURVE ( 'NONE', #151, #100, #95, .T. ) ;
#130 = CARTESIAN_POINT ( 'NONE',  ( 4.263256414560599900E-014, 12.85205454848685300, 0.5316773358184645500 ) ) ;
#131 = CARTESIAN_POINT ( 'NONE',  ( 0.0000000000000000000, 0.0000000000000000000, 0.0000000000000000000 ) ) ;
#132 = FACE_OUTER_BOUND ( 'NONE', #87, .T. ) ;
#133 = CC_DESIGN_APPROVAL ( #198, ( #134 ) ) ;
#134 = PRODUCT_DEFINITION_FORMATION_WITH_SPECIFIED_SOURCE ( 'ANY', '', #210, .NOT_KNOWN. ) ;
#135 = ORIENTED_EDGE ( 'NONE', *, *, #129, .T. ) ;
#136 = CARTESIAN_POINT ( 'NONE',  ( 5.204170427930421300E-015, -12.85205454848681200, 0.5316773358184708800 ) ) ;
#137 = DATE_AND_TIME ( #188, #31 ) ;
#138 = DIRECTION ( 'NONE',  ( -0.0000000000000000000, -0.0000000000000000000, -1.000000000000000000 ) ) ;
#139 = CARTESIAN_POINT ( 'NONE',  ( -12.79061371514956100, -4.293799312988603000, 0.3483644581787686500 ) ) ;
#140 = DIRECTION ( 'NONE',  ( 1.000000000000000000, 0.0000000000000000000, 0.0000000000000000000 ) ) ;
#141 = CALENDAR_DATE ( 2018, 21, 12 ) ;
#142 = APPROVAL_ROLE ( '' ) ;
#143 = CIRCLE ( 'NONE', #180, 12.69999999999999900 ) ;
#144 = ORIENTED_EDGE ( 'NONE', *, *, #235, .T. ) ;
#145 = AXIS2_PLACEMENT_3D ( 'NONE', #56, #15, #105 ) ;
#146 = PERSON_AND_ORGANIZATION_ROLE ( 'creator' ) ;
#147 = CIRCLE ( 'NONE', #80, 12.69999999999999900 ) ;
#148 = LOCAL_TIME ( 8, 49, 6.000000000000000000, #124 ) ;
#149 = CC_DESIGN_PERSON_AND_ORGANIZATION_ASSIGNMENT ( #166, #146, ( #55 ) ) ;
#150 = EDGE_LOOP ( 'NONE', ( #104, #2 ) ) ;
#151 = VERTEX_POINT ( 'NONE', #28 ) ;
#152 = DIRECTION ( 'NONE',  ( 1.000000000000000000, 0.0000000000000000000, 0.0000000000000000000 ) ) ;
#153 = ORIENTED_EDGE ( 'NONE', *, *, #129, .F. ) ;
#154 = DIRECTION ( 'NONE',  ( -0.0000000000000000000, -0.0000000000000000000, -1.000000000000000000 ) ) ;
#155 = CARTESIAN_POINT ( 'NONE',  ( 3.469446951953614200E-015, -4.293799312988603000, -0.1776304147057597100 ) ) ;
#156 = DIRECTION ( 'NONE',  ( -0.0000000000000000000, -0.0000000000000000000, -1.000000000000000000 ) ) ;
#157 = CARTESIAN_POINT ( 'NONE',  ( 4.996003610813200500E-016, 2.442490654175340100E-015, 0.5191501183979180300 ) ) ;
#158 = APPROVAL_DATE_TIME ( #221, #217 ) ;
#159 = CC_DESIGN_PERSON_AND_ORGANIZATION_ASSIGNMENT ( #173, #89, ( #134 ) ) ;
#160 = DIRECTION ( 'NONE',  ( 1.000000000000000000, 0.0000000000000000000, 0.0000000000000000000 ) ) ;
#161 = ORIENTED_EDGE ( 'NONE', *, *, #231, .T. ) ;
#162 = AXIS2_PLACEMENT_3D ( 'NONE', #200, #19, #185 ) ;
#163 = CARTESIAN_POINT ( 'NONE',  ( 12.79061371514959900, 4.293799312988644700, 0.3483644581787720400 ) ) ;
#164 = FACE_OUTER_BOUND ( 'NONE', #6, .T. ) ;
#165 = DATE_TIME_ROLE ( 'classification_date' ) ;
#166 = PERSON_AND_ORGANIZATION ( #122, #41 ) ;
#167 = EDGE_CURVE ( 'NONE', #201, #151, #58, .T. ) ;
#168 = APPLICATION_CONTEXT ( 'configuration controlled 3d designs of mechanical parts and assemblies' ) ;
#169 = PERSON_AND_ORGANIZATION ( #122, #41 ) ;
#170 = CC_DESIGN_PERSON_AND_ORGANIZATION_ASSIGNMENT ( #60, #34, ( #134 ) ) ;
#171 = ORIENTED_EDGE ( 'NONE', *, *, #77, .F. ) ;
#172 = COORDINATED_UNIVERSAL_TIME_OFFSET ( 2, 0, .AHEAD. ) ;
#173 = PERSON_AND_ORGANIZATION ( #122, #41 ) ;
#174 = CARTESIAN_POINT ( 'NONE',  ( -4.250104592436050800, 12.85205454848685300, 0.5316773358184717600 ) ) ;
#175 = CARTESIAN_POINT ( 'NONE',  ( -8.496619969957288600, -12.85205454848681100, 0.7063089341096345800 ) ) ;
#176 = EDGE_LOOP ( 'NONE', ( #153, #225, #232, #190, #81 ) ) ;
#177 = PERSON_AND_ORGANIZATION ( #122, #41 ) ;
#178 = PRODUCT_RELATED_PRODUCT_CATEGORY ( 'detail', '', ( #210 ) ) ;
#179 = DIRECTION ( 'NONE',  ( 1.000000000000000000, 0.0000000000000000000, 0.0000000000000000000 ) ) ;
#180 = AXIS2_PLACEMENT_3D ( 'NONE', #46, #65, #194 ) ;
#181 = DIRECTION ( 'NONE',  ( 1.000000000000000000, 0.0000000000000000000, 0.0000000000000000000 ) ) ;
#182 = COORDINATED_UNIVERSAL_TIME_OFFSET ( 2, 0, .AHEAD. ) ;
#183 = COORDINATED_UNIVERSAL_TIME_OFFSET ( 2, 0, .AHEAD. ) ;
#184 =( NAMED_UNIT ( * ) SI_UNIT ( $, .STERADIAN. ) SOLID_ANGLE_UNIT ( ) );
#185 = DIRECTION ( 'NONE',  ( 1.000000000000000000, 0.0000000000000000000, 0.0000000000000000000 ) ) ;
#186 = PERSON_AND_ORGANIZATION ( #122, #41 ) ;
#187 = EDGE_CURVE ( 'NONE', #215, #106, #147, .T. ) ;
#188 = CALENDAR_DATE ( 2018, 21, 12 ) ;
#189 = CARTESIAN_POINT ( 'NONE',  ( -12.79061371514956100, 4.293799312988644700, 0.3483644581787711500 ) ) ;
#190 = ORIENTED_EDGE ( 'NONE', *, *, #77, .T. ) ;
#191 = ORIENTED_EDGE ( 'NONE', *, *, #14, .T. ) ;
#192 = CARTESIAN_POINT ( 'NONE',  ( -12.73237376492073600, 12.85205454848685300, 1.055277177792080000 ) ) ;
#193 = AXIS2_PLACEMENT_3D ( 'NONE', #228, #9, #121 ) ;
#194 = DIRECTION ( 'NONE',  ( 1.000000000000000000, 0.0000000000000000000, 0.0000000000000000000 ) ) ;
#195 = ORIENTED_EDGE ( 'NONE', *, *, #40, .T. ) ;
#196 = PERSON_AND_ORGANIZATION_ROLE ( 'design_owner' ) ;
#197 = ADVANCED_FACE ( 'NONE', ( #96 ), #101, .T. ) ;
#198 = APPROVAL ( #229, 'UNSPECIFIED' ) ;
#199 = CYLINDRICAL_SURFACE ( 'NONE', #32, 12.69999999999999900 ) ;
#200 = CARTESIAN_POINT ( 'NONE',  ( 4.996003610813200500E-016, 2.442490654175340100E-015, 3.000000000000000000 ) ) ;
#201 = VERTEX_POINT ( 'NONE', #13 ) ;
#202 = CARTESIAN_POINT ( 'NONE',  ( 4.269545262691373500, -4.293799312988601200, -0.1776304147057661300 ) ) ;
#203 = CARTESIAN_POINT ( 'NONE',  ( 4.263256414560599900E-014, 4.293799312988644700, -0.1776304147057636800 ) ) ;
#204 =( GEOMETRIC_REPRESENTATION_CONTEXT ( 3 ) GLOBAL_UNCERTAINTY_ASSIGNED_CONTEXT ( ( #30 ) ) GLOBAL_UNIT_ASSIGNED_CONTEXT ( ( #123, #57, #184 ) ) REPRESENTATION_CONTEXT ( 'NONE', 'WORKASPACE' ) );
#205 = LINE ( 'NONE', #79, #11 ) ;
#206 = DIRECTION ( 'NONE',  ( 0.0000000000000000000, 0.0000000000000000000, 1.000000000000000000 ) ) ;
#207 = ADVANCED_FACE ( 'NONE', ( #164 ), #128, .T. ) ;
#208 = CARTESIAN_POINT ( 'NONE',  ( 5.204170427930421300E-015, 12.85205454848685300, 0.5316773358184708800 ) ) ;
#209 = CIRCLE ( 'NONE', #111, 12.69999999999999900 ) ;
#210 = PRODUCT ( '110-0239E BK7 pl-cx 25.4 F300', '110-0239E BK7 pl-cx 25.4 F300', '', ( #127 ) ) ;
#211 = PERSON_AND_ORGANIZATION ( #122, #41 ) ;
#212 = CARTESIAN_POINT ( 'NONE',  ( -8.535484892814555000, 4.293799312988644700, -0.002200023056761305900 ) ) ;
#213 = APPROVAL_ROLE ( '' ) ;
#214 = CC_DESIGN_DATE_AND_TIME_ASSIGNMENT ( #86, #165, ( #23 ) ) ;
#215 = VERTEX_POINT ( 'NONE', #99 ) ;
#216 = PERSON_AND_ORGANIZATION_ROLE ( 'classification_officer' ) ;
#217 = APPROVAL ( #59, 'UNSPECIFIED' ) ;
#218 = CARTESIAN_POINT ( 'NONE',  ( 8.535484892814595900, 4.293799312988644700, -0.002200023056758757600 ) ) ;
#219 = LOCAL_TIME ( 8, 49, 6.000000000000000000, #182 ) ;
#220 = EDGE_CURVE ( 'NONE', #233, #100, #66, .T. ) ;
#221 = DATE_AND_TIME ( #226, #148 ) ;
#222 = CARTESIAN_POINT ( 'NONE',  ( -12.69999999999999900, 3.997792089092478900E-015, 3.000000000000000000 ) ) ;
#223 = CC_DESIGN_SECURITY_CLASSIFICATION ( #23, ( #134 ) ) ;
#224 = CARTESIAN_POINT ( 'NONE',  ( -12.73237376492073600, -12.85205454848681200, 1.055277177792080000 ) ) ;
#225 = ORIENTED_EDGE ( 'NONE', *, *, #167, .F. ) ;
#226 = CALENDAR_DATE ( 2018, 21, 12 ) ;
#227 = CARTESIAN_POINT ( 'NONE',  ( 4.996003610813200500E-016, 2.442490654175340100E-015, 0.5191501183979180300 ) ) ;
#228 = CARTESIAN_POINT ( 'NONE',  ( 0.0000000000000000000, 26.11199999999999800, 3.000000000000000000 ) ) ;
#229 = APPROVAL_STATUS ( 'not_yet_approved' ) ;
#230 =( BOUNDED_SURFACE ( )  B_SPLINE_SURFACE ( 3, 3, ( 
 ( #224, #175, #63, #136 ),
 ( #139, #114, #27, #155 ),
 ( #189, #212, #69, #116 ),
 ( #192, #64, #174, #208 ) ),
 .UNSPECIFIED., .F., .F., .T. ) 
 B_SPLINE_SURFACE_WITH_KNOTS ( ( 4, 4 ),
 ( 4, 4 ),
 ( 0.0000000000000000000, 1.000000000000000000 ),
 ( 0.0000000000000000000, 1.000000000000000000 ),
 .UNSPECIFIED. ) 
 GEOMETRIC_REPRESENTATION_ITEM ( )  RATIONAL_B_SPLINE_SURFACE ( (
 ( 1.000000000000000000, 0.9994369997511422000, 0.9994369997511422000, 1.000000000000000000),
 ( 0.9977220336940082500, 0.9971603159407476100, 0.9971603159407476100, 0.9977220336940082500),
 ( 0.9977220336940082500, 0.9971603159407476100, 0.9971603159407476100, 0.9977220336940082500),
 ( 1.000000000000000000, 0.9994369997511422000, 0.9994369997511422000, 1.000000000000000000) ) ) 
 REPRESENTATION_ITEM ( '' )  SURFACE ( )  );
#231 = EDGE_CURVE ( 'NONE', #201, #215, #3, .T. ) ;
#232 = ORIENTED_EDGE ( 'NONE', *, *, #40, .F. ) ;
#233 = VERTEX_POINT ( 'NONE', #70 ) ;
#234 = DIRECTION ( 'NONE',  ( 0.0000000000000000000, 0.0000000000000000000, 1.000000000000000000 ) ) ;
#235 = EDGE_CURVE ( 'NONE', #100, #233, #110, .T. ) ;
ENDSEC;
END-ISO-10303-21;
