ISO-10303-21;
HEADER;
FILE_DESCRIPTION (( 'STEP AP203' ),
    '1' );
FILE_NAME ('110-0235E BK7 pl-cx 25.4 F250.STEP',
    '2018-12-21T06:49:17',
    ( '' ),
    ( '' ),
    'SwSTEP 2.0',
    'SolidWorks 2017',
    '' );
FILE_SCHEMA (( 'CONFIG_CONTROL_DESIGN' ));
ENDSEC;

DATA;
#1 = CALENDAR_DATE ( 2018, 21, 12 ) ;
#2 = FACE_OUTER_BOUND ( 'NONE', #115, .T. ) ;
#3 = CYLINDRICAL_SURFACE ( 'NONE', #79, 12.69999999999999900 ) ;
#4 = CARTESIAN_POINT ( 'NONE',  ( 4.996003610813200500E-016, 2.442490654175340100E-015, 0.6232786285613779500 ) ) ;
#5 = DIRECTION ( 'NONE',  ( -0.0000000000000000000, -0.0000000000000000000, -1.000000000000000000 ) ) ;
#6 = CARTESIAN_POINT ( 'NONE',  ( 12.71307684645438000, 12.85190222140398900, 1.265984698804914200 ) ) ;
#7 = ORIENTED_EDGE ( 'NONE', *, *, #166, .F. ) ;
#8 = CARTESIAN_POINT ( 'NONE',  ( 4.996003610813200500E-016, 2.442490654175340100E-015, 0.6232786285613779500 ) ) ;
#9 = DIRECTION ( 'NONE',  ( 1.000000000000000000, 0.0000000000000000000, 0.0000000000000000000 ) ) ;
#10 = PERSON_AND_ORGANIZATION ( #151, #161 ) ;
#11 = CARTESIAN_POINT ( 'NONE',  ( -1.421085471520200100E-014, -1.421085471520200100E-014, 129.6999999999999900 ) ) ;
#12 =( NAMED_UNIT ( * ) PLANE_ANGLE_UNIT ( ) SI_UNIT ( $, .RADIAN. ) );
#13 = DIRECTION ( 'NONE',  ( 0.0000000000000000000, 0.0000000000000000000, 1.000000000000000000 ) ) ;
#14 = DATE_TIME_ROLE ( 'classification_date' ) ;
#15 = EDGE_LOOP ( 'NONE', ( #157, #7, #89, #183, #138 ) ) ;
#16 = CALENDAR_DATE ( 2018, 21, 12 ) ;
#17 = VECTOR ( 'NONE', #211, 1000.000000000000000 ) ;
#18 = PRODUCT_RELATED_PRODUCT_CATEGORY ( 'detail', '', ( #225 ) ) ;
#19 = EDGE_CURVE ( 'NONE', #128, #44, #95, .T. ) ;
#20 = COORDINATED_UNIVERSAL_TIME_OFFSET ( 2, 0, .AHEAD. ) ;
#21 = SECURITY_CLASSIFICATION ( '', '', #88 ) ;
#22 = PRODUCT_DEFINITION_SHAPE ( 'NONE', 'NONE',  #100 ) ;
#23 = FACE_OUTER_BOUND ( 'NONE', #223, .T. ) ;
#24 = CARTESIAN_POINT ( 'NONE',  ( 8.543445721963294700, -4.298069287684550800, -0.002696849516145961800 ) ) ;
#25 = AXIS2_PLACEMENT_3D ( 'NONE', #212, #233, #179 ) ;
#26 = CARTESIAN_POINT ( 'NONE',  ( -12.71307684645447000, 12.85190222140398900, 1.265984698804928400 ) ) ;
#27 = PERSON_AND_ORGANIZATION ( #151, #161 ) ;
#28 = CARTESIAN_POINT ( 'NONE',  ( 8.487430028126969000, -12.85190222140400700, 0.8477078692485937600 ) ) ;
#29 = CARTESIAN_POINT ( 'NONE',  ( -4.274322874609612000, -4.298069287684549900, -0.2134719680957690200 ) ) ;
#30 = DIRECTION ( 'NONE',  ( -0.0000000000000000000, -0.0000000000000000000, -1.000000000000000000 ) ) ;
#31 = PERSON_AND_ORGANIZATION ( #151, #161 ) ;
#32 = DIRECTION ( 'NONE',  ( 1.000000000000000000, 8.881784197001252300E-016, 0.0000000000000000000 ) ) ;
#33 = CARTESIAN_POINT ( 'NONE',  ( -7.285838599102589800E-014, 12.85190222140398900, 0.6383147123381719400 ) ) ;
#34 = APPROVAL_ROLE ( '' ) ;
#35 = VERTEX_POINT ( 'NONE', #145 ) ;
#36 =( BOUNDED_SURFACE ( )  B_SPLINE_SURFACE ( 3, 3, ( 
 ( #87, #102, #172, #226 ),
 ( #130, #67, #29, #230 ),
 ( #196, #192, #86, #228 ),
 ( #26, #83, #108, #33 ) ),
 .UNSPECIFIED., .F., .F., .T. ) 
 B_SPLINE_SURFACE_WITH_KNOTS ( ( 4, 4 ),
 ( 4, 4 ),
 ( 0.0000000000000000000, 1.000000000000000000 ),
 ( 0.0000000000000000000, 1.000000000000000000 ),
 .UNSPECIFIED. ) 
 GEOMETRIC_REPRESENTATION_ITEM ( )  RATIONAL_B_SPLINE_SURFACE ( (
 ( 1.000000000000000000, 0.9991889511066741600, 0.9991889511066741600, 1.000000000000000000),
 ( 0.9967190197258384300, 0.9959106318679329400, 0.9959106318679329400, 0.9967190197258384300),
 ( 0.9967190197258384300, 0.9959106318679329400, 0.9959106318679329400, 0.9967190197258384300),
 ( 1.000000000000000000, 0.9991889511066741600, 0.9991889511066741600, 1.000000000000000000) ) ) 
 REPRESENTATION_ITEM ( '' )  SURFACE ( )  );
#37 = PERSON_AND_ORGANIZATION ( #151, #161 ) ;
#38 = ORIENTED_EDGE ( 'NONE', *, *, #169, .T. ) ;
#39 = EDGE_CURVE ( 'NONE', #35, #235, #113, .T. ) ;
#40 = CLOSED_SHELL ( 'NONE', ( #105, #43, #194, #147, #186 ) ) ;
#41 = CARTESIAN_POINT ( 'NONE',  ( 4.246297980521839000, 12.85190222140398900, 0.6383147123381607300 ) ) ;
#42 = CARTESIAN_POINT ( 'NONE',  ( 8.543445721963294700, 4.298069287684533900, -0.002696849516146721100 ) ) ;
#43 = ADVANCED_FACE ( 'NONE', ( #124 ), #202, .T. ) ;
#44 = VERTEX_POINT ( 'NONE', #84 ) ;
#45 = CARTESIAN_POINT ( 'NONE',  ( 12.69999999999999900, 2.442490654175340100E-015, 0.6232786285613779500 ) ) ;
#46 = CARTESIAN_POINT ( 'NONE',  ( 4.996003610813200500E-016, 2.442490654175340100E-015, 0.6232786285613779500 ) ) ;
#47 = CARTESIAN_POINT ( 'NONE',  ( 12.69999999999999900, 2.442490654175340100E-015, 3.000000000000000000 ) ) ;
#48 = ORIENTED_EDGE ( 'NONE', *, *, #70, .T. ) ;
#49 = APPLICATION_PROTOCOL_DEFINITION ( 'international standard', 'config_control_design', 1994, #73 ) ;
#50 = LOCAL_TIME ( 8, 49, 17.00000000000000000, #92 ) ;
#51 =( BOUNDED_SURFACE ( )  B_SPLINE_SURFACE ( 3, 3, ( 
 ( #129, #82, #28, #133 ),
 ( #208, #155, #24, #171 ),
 ( #170, #64, #42, #66 ),
 ( #81, #41, #207, #6 ) ),
 .UNSPECIFIED., .F., .F., .T. ) 
 B_SPLINE_SURFACE_WITH_KNOTS ( ( 4, 4 ),
 ( 4, 4 ),
 ( 0.0000000000000000000, 1.000000000000000000 ),
 ( 0.0000000000000000000, 1.000000000000000000 ),
 .UNSPECIFIED. ) 
 GEOMETRIC_REPRESENTATION_ITEM ( )  RATIONAL_B_SPLINE_SURFACE ( (
 ( 1.000000000000000000, 0.9991889511066741600, 0.9991889511066741600, 1.000000000000000000),
 ( 0.9967190197258384300, 0.9959106318679329400, 0.9959106318679329400, 0.9967190197258384300),
 ( 0.9967190197258384300, 0.9959106318679329400, 0.9959106318679329400, 0.9967190197258384300),
 ( 1.000000000000000000, 0.9991889511066741600, 0.9991889511066741600, 1.000000000000000000) ) ) 
 REPRESENTATION_ITEM ( '' )  SURFACE ( )  );
#52 = EDGE_CURVE ( 'NONE', #44, #128, #181, .T. ) ;
#53 = PERSON_AND_ORGANIZATION_ROLE ( 'creator' ) ;
#54 = CIRCLE ( 'NONE', #75, 12.69999999999999900 ) ;
#55 = DATE_TIME_ROLE ( 'creation_date' ) ;
#56 = CC_DESIGN_APPROVAL ( #146, ( #21 ) ) ;
#57 = CALENDAR_DATE ( 2018, 21, 12 ) ;
#58 = AXIS2_PLACEMENT_3D ( 'NONE', #11, #234, #123 ) ;
#59 = LINE ( 'NONE', #121, #17 ) ;
#60 = CIRCLE ( 'NONE', #77, 12.69999999999999900 ) ;
#61 = ADVANCED_BREP_SHAPE_REPRESENTATION ( '110-0235E BK7 pl-cx 25.4 F250', ( #134, #25 ), #187 ) ;
#62 = ORIENTED_EDGE ( 'NONE', *, *, #70, .F. ) ;
#63 = AXIS2_PLACEMENT_3D ( 'NONE', #46, #5, #189 ) ;
#64 = CARTESIAN_POINT ( 'NONE',  ( 4.274322874609503700, 4.298069287684533900, -0.2134719680957828700 ) ) ;
#65 = DIRECTION ( 'NONE',  ( -0.0000000000000000000, -0.0000000000000000000, -1.000000000000000000 ) ) ;
#66 = CARTESIAN_POINT ( 'NONE',  ( 12.79698113997888200, 4.298069287684533900, 0.4183405408631329400 ) ) ;
#67 = CARTESIAN_POINT ( 'NONE',  ( -8.543445721963394100, -4.298069287684550800, -0.002696849516132843400 ) ) ;
#68 = ORIENTED_EDGE ( 'NONE', *, *, #148, .F. ) ;
#69 = CC_DESIGN_PERSON_AND_ORGANIZATION_ASSIGNMENT ( #31, #53, ( #100 ) ) ;
#70 = EDGE_CURVE ( 'NONE', #120, #35, #142, .T. ) ;
#71 = PERSON_AND_ORGANIZATION ( #151, #161 ) ;
#72 = ORIENTED_EDGE ( 'NONE', *, *, #52, .T. ) ;
#73 = APPLICATION_CONTEXT ( 'configuration controlled 3d designs of mechanical parts and assemblies' ) ;
#74 = APPROVAL_STATUS ( 'not_yet_approved' ) ;
#75 = AXIS2_PLACEMENT_3D ( 'NONE', #104, #65, #193 ) ;
#76 = LINE ( 'NONE', #200, #191 ) ;
#77 = AXIS2_PLACEMENT_3D ( 'NONE', #214, #135, #32 ) ;
#78 = APPROVAL_DATE_TIME ( #213, #195 ) ;
#79 = AXIS2_PLACEMENT_3D ( 'NONE', #8, #222, #117 ) ;
#80 = VERTEX_POINT ( 'NONE', #119 ) ;
#81 = CARTESIAN_POINT ( 'NONE',  ( -4.343492512754940000E-014, 12.85190222140398900, 0.6383147123381616200 ) ) ;
#82 = CARTESIAN_POINT ( 'NONE',  ( 4.246297980521839000, -12.85190222140400700, 0.6383147123381607300 ) ) ;
#83 = CARTESIAN_POINT ( 'NONE',  ( -8.487430028127070300, 12.85190222140398900, 0.8477078692486067500 ) ) ;
#84 = CARTESIAN_POINT ( 'NONE',  ( -12.69999999999999900, 3.997792089092478900E-015, 3.000000000000000000 ) ) ;
#85 =( LENGTH_UNIT ( ) NAMED_UNIT ( * ) SI_UNIT ( .MILLI., .METRE. ) );
#86 = CARTESIAN_POINT ( 'NONE',  ( -4.274322874609610200, 4.298069287684534800, -0.2134719680957696800 ) ) ;
#87 = CARTESIAN_POINT ( 'NONE',  ( -12.71307684645447000, -12.85190222140400700, 1.265984698804928400 ) ) ;
#88 = SECURITY_CLASSIFICATION_LEVEL ( 'unclassified' ) ;
#89 = ORIENTED_EDGE ( 'NONE', *, *, #209, .F. ) ;
#90 = APPROVAL_ROLE ( '' ) ;
#91 = COORDINATED_UNIVERSAL_TIME_OFFSET ( 2, 0, .AHEAD. ) ;
#92 = COORDINATED_UNIVERSAL_TIME_OFFSET ( 2, 0, .AHEAD. ) ;
#93 = CC_DESIGN_PERSON_AND_ORGANIZATION_ASSIGNMENT ( #215, #177, ( #225 ) ) ;
#94 = LOCAL_TIME ( 8, 49, 17.00000000000000000, #227 ) ;
#95 = CIRCLE ( 'NONE', #163, 12.69999999999999900 ) ;
#96 = EDGE_CURVE ( 'NONE', #235, #128, #59, .T. ) ;
#97 = DESIGN_CONTEXT ( 'detailed design', #73, 'design' ) ;
#98 = ORIENTED_EDGE ( 'NONE', *, *, #166, .T. ) ;
#99 = AXIS2_PLACEMENT_3D ( 'NONE', #4, #229, #131 ) ;
#100 = PRODUCT_DEFINITION ( 'UNKNOWN', '', #162, #97 ) ;
#101 = FACE_OUTER_BOUND ( 'NONE', #232, .T. ) ;
#102 = CARTESIAN_POINT ( 'NONE',  ( -8.487430028127070300, -12.85190222140400700, 0.8477078692486067500 ) ) ;
#103 = CARTESIAN_POINT ( 'NONE',  ( 4.996003610813200500E-016, 2.442490654175340100E-015, 0.6232786285613779500 ) ) ;
#104 = CARTESIAN_POINT ( 'NONE',  ( 4.996003610813200500E-016, 2.442490654175340100E-015, 0.6232786285613779500 ) ) ;
#105 = ADVANCED_FACE ( 'NONE', ( #101 ), #51, .T. ) ;
#106 = CARTESIAN_POINT ( 'NONE',  ( -12.69999999999999900, 3.997792089092478900E-015, 0.6232786285613779500 ) ) ;
#107 = CC_DESIGN_DATE_AND_TIME_ASSIGNMENT ( #165, #14, ( #21 ) ) ;
#108 = CARTESIAN_POINT ( 'NONE',  ( -4.246297980521948300, 12.85190222140398900, 0.6383147123381739400 ) ) ;
#109 = APPROVAL ( #110, 'UNSPECIFIED' ) ;
#110 = APPROVAL_STATUS ( 'not_yet_approved' ) ;
#111 = AXIS2_PLACEMENT_3D ( 'NONE', #103, #149, #132 ) ;
#112 = DIRECTION ( 'NONE',  ( 0.0000000000000000000, 0.0000000000000000000, 1.000000000000000000 ) ) ;
#113 = CIRCLE ( 'NONE', #99, 12.69999999999999900 ) ;
#114 = FACE_OUTER_BOUND ( 'NONE', #15, .T. ) ;
#115 = EDGE_LOOP ( 'NONE', ( #68, #98, #48 ) ) ;
#116 = CC_DESIGN_APPROVAL ( #195, ( #100 ) ) ;
#117 = DIRECTION ( 'NONE',  ( 1.000000000000000000, 0.0000000000000000000, 0.0000000000000000000 ) ) ;
#118 = CC_DESIGN_PERSON_AND_ORGANIZATION_ASSIGNMENT ( #37, #197, ( #162 ) ) ;
#119 = CARTESIAN_POINT ( 'NONE',  ( -4.343832982174688800E-014, -12.69999999999996600, 0.6232786285613624000 ) ) ;
#120 = VERTEX_POINT ( 'NONE', #106 ) ;
#121 = CARTESIAN_POINT ( 'NONE',  ( 12.69999999999999900, 2.442490654175340100E-015, 0.6232786285613779500 ) ) ;
#122 = PERSON_AND_ORGANIZATION_ROLE ( 'design_supplier' ) ;
#123 = DIRECTION ( 'NONE',  ( 0.0000000000000000000, -1.000000000000000000, -4.279965399480172100E-016 ) ) ;
#124 = FACE_OUTER_BOUND ( 'NONE', #185, .T. ) ;
#125 = APPLICATION_PROTOCOL_DEFINITION ( 'international standard', 'config_control_design', 1994, #178 ) ;
#126 = CALENDAR_DATE ( 2018, 21, 12 ) ;
#127 = DATE_AND_TIME ( #57, #203 ) ;
#128 = VERTEX_POINT ( 'NONE', #47 ) ;
#129 = CARTESIAN_POINT ( 'NONE',  ( -4.343492512754940000E-014, -12.85190222140400700, 0.6383147123381616200 ) ) ;
#130 = CARTESIAN_POINT ( 'NONE',  ( -12.79698113997897500, -4.298069287684550800, 0.4183405408631480900 ) ) ;
#131 = DIRECTION ( 'NONE',  ( 1.000000000000000000, 0.0000000000000000000, 0.0000000000000000000 ) ) ;
#132 = DIRECTION ( 'NONE',  ( 1.000000000000000000, 0.0000000000000000000, 0.0000000000000000000 ) ) ;
#133 = CARTESIAN_POINT ( 'NONE',  ( 12.71307684645437800, -12.85190222140400700, 1.265984698804914200 ) ) ;
#134 = MANIFOLD_SOLID_BREP ( 'Imported1', #40 ) ;
#135 = DIRECTION ( 'NONE',  ( -0.0000000000000000000, -0.0000000000000000000, -1.000000000000000000 ) ) ;
#136 = DATE_AND_TIME ( #1, #141 ) ;
#137 = APPROVAL_PERSON_ORGANIZATION ( #71, #195, #199 ) ;
#138 = ORIENTED_EDGE ( 'NONE', *, *, #19, .T. ) ;
#139 = DIRECTION ( 'NONE',  ( 1.000000000000000000, 0.0000000000000000000, -0.0000000000000000000 ) ) ;
#140 = APPROVAL_DATE_TIME ( #143, #146 ) ;
#141 = LOCAL_TIME ( 8, 49, 17.00000000000000000, #91 ) ;
#142 = CIRCLE ( 'NONE', #63, 12.69999999999999900 ) ;
#143 = DATE_AND_TIME ( #16, #50 ) ;
#144 = ORIENTED_EDGE ( 'NONE', *, *, #39, .F. ) ;
#145 = CARTESIAN_POINT ( 'NONE',  ( -4.343832982174688800E-014, 12.69999999999995500, 0.6232786285613624000 ) ) ;
#146 = APPROVAL ( #201, 'UNSPECIFIED' ) ;
#147 = ADVANCED_FACE ( 'NONE', ( #114 ), #3, .T. ) ;
#148 = EDGE_CURVE ( 'NONE', #80, #35, #150, .T. ) ;
#149 = DIRECTION ( 'NONE',  ( 0.0000000000000000000, 0.0000000000000000000, 1.000000000000000000 ) ) ;
#150 = CIRCLE ( 'NONE', #58, 129.6999999999999900 ) ;
#151 = PERSON ( 'UNSPECIFIED', 'UNSPECIFIED', 'UNSPECIFIED', ('UNSPECIFIED'), ('UNSPECIFIED'), ('UNSPECIFIED') ) ;
#152 = CC_DESIGN_SECURITY_CLASSIFICATION ( #21, ( #162 ) ) ;
#153 = DIRECTION ( 'NONE',  ( -0.0000000000000000000, -0.0000000000000000000, -1.000000000000000000 ) ) ;
#154 = APPROVAL_DATE_TIME ( #136, #109 ) ;
#155 = CARTESIAN_POINT ( 'NONE',  ( 4.274322874609503700, -4.298069287684550800, -0.2134719680957821700 ) ) ;
#156 = AXIS2_PLACEMENT_3D ( 'NONE', #168, #30, #9 ) ;
#157 = ORIENTED_EDGE ( 'NONE', *, *, #169, .F. ) ;
#158 = CARTESIAN_POINT ( 'NONE',  ( 0.0000000000000000000, 26.11199999999999800, 3.000000000000000000 ) ) ;
#159 = MECHANICAL_CONTEXT ( 'NONE', #178, 'mechanical' ) ;
#160 = PERSON_AND_ORGANIZATION_ROLE ( 'classification_officer' ) ;
#161 = ORGANIZATION ( 'UNSPECIFIED', 'UNSPECIFIED', '' ) ;
#162 = PRODUCT_DEFINITION_FORMATION_WITH_SPECIFIED_SOURCE ( 'ANY', '', #225, .NOT_KNOWN. ) ;
#163 = AXIS2_PLACEMENT_3D ( 'NONE', #224, #153, #190 ) ;
#164 = ORIENTED_EDGE ( 'NONE', *, *, #209, .T. ) ;
#165 = DATE_AND_TIME ( #174, #218 ) ;
#166 = EDGE_CURVE ( 'NONE', #80, #120, #60, .T. ) ;
#167 = ORIENTED_EDGE ( 'NONE', *, *, #19, .F. ) ;
#168 = CARTESIAN_POINT ( 'NONE',  ( 4.996003610813200500E-016, 2.442490654175340100E-015, 3.000000000000000000 ) ) ;
#169 = EDGE_CURVE ( 'NONE', #120, #44, #76, .T. ) ;
#170 = CARTESIAN_POINT ( 'NONE',  ( -4.362779936338336600E-014, 4.298069287684533900, -0.2134719680957819200 ) ) ;
#171 = CARTESIAN_POINT ( 'NONE',  ( 12.79698113997888200, -4.298069287684550800, 0.4183405408631337100 ) ) ;
#172 = CARTESIAN_POINT ( 'NONE',  ( -4.246297980521948300, -12.85190222140400700, 0.6383147123381739400 ) ) ;
#173 =( NAMED_UNIT ( * ) SI_UNIT ( $, .STERADIAN. ) SOLID_ANGLE_UNIT ( ) );
#174 = CALENDAR_DATE ( 2018, 21, 12 ) ;
#175 = ORIENTED_EDGE ( 'NONE', *, *, #39, .T. ) ;
#176 = AXIS2_PLACEMENT_3D ( 'NONE', #158, #112, #139 ) ;
#177 = PERSON_AND_ORGANIZATION_ROLE ( 'design_owner' ) ;
#178 = APPLICATION_CONTEXT ( 'configuration controlled 3d designs of mechanical parts and assemblies' ) ;
#179 = DIRECTION ( 'NONE',  ( 1.000000000000000000, 0.0000000000000000000, 0.0000000000000000000 ) ) ;
#180 = APPROVAL_PERSON_ORGANIZATION ( #231, #146, #90 ) ;
#181 = CIRCLE ( 'NONE', #156, 12.69999999999999900 ) ;
#182 = CC_DESIGN_DATE_AND_TIME_ASSIGNMENT ( #127, #55, ( #100 ) ) ;
#183 = ORIENTED_EDGE ( 'NONE', *, *, #96, .T. ) ;
#184 = SHAPE_DEFINITION_REPRESENTATION ( #22, #61 ) ;
#185 = EDGE_LOOP ( 'NONE', ( #62, #38, #72, #206, #144 ) ) ;
#186 = ADVANCED_FACE ( 'NONE', ( #23 ), #217, .T. ) ;
#187 =( GEOMETRIC_REPRESENTATION_CONTEXT ( 3 ) GLOBAL_UNCERTAINTY_ASSIGNED_CONTEXT ( ( #210 ) ) GLOBAL_UNIT_ASSIGNED_CONTEXT ( ( #85, #12, #173 ) ) REPRESENTATION_CONTEXT ( 'NONE', 'WORKASPACE' ) );
#188 = APPROVAL_PERSON_ORGANIZATION ( #10, #109, #34 ) ;
#189 = DIRECTION ( 'NONE',  ( 1.000000000000000000, 0.0000000000000000000, 0.0000000000000000000 ) ) ;
#190 = DIRECTION ( 'NONE',  ( 1.000000000000000000, 0.0000000000000000000, 0.0000000000000000000 ) ) ;
#191 = VECTOR ( 'NONE', #13, 1000.000000000000000 ) ;
#192 = CARTESIAN_POINT ( 'NONE',  ( -8.543445721963394100, 4.298069287684533900, -0.002696849516133656500 ) ) ;
#193 = DIRECTION ( 'NONE',  ( 1.000000000000000000, 0.0000000000000000000, 0.0000000000000000000 ) ) ;
#194 = ADVANCED_FACE ( 'NONE', ( #2 ), #36, .T. ) ;
#195 = APPROVAL ( #74, 'UNSPECIFIED' ) ;
#196 = CARTESIAN_POINT ( 'NONE',  ( -12.79698113997897300, 4.298069287684533900, 0.4183405408631472600 ) ) ;
#197 = PERSON_AND_ORGANIZATION_ROLE ( 'creator' ) ;
#198 = ORIENTED_EDGE ( 'NONE', *, *, #148, .T. ) ;
#199 = APPROVAL_ROLE ( '' ) ;
#200 = CARTESIAN_POINT ( 'NONE',  ( -12.69999999999999900, 3.997792089092478900E-015, 0.6232786285613779500 ) ) ;
#201 = APPROVAL_STATUS ( 'not_yet_approved' ) ;
#202 = CYLINDRICAL_SURFACE ( 'NONE', #111, 12.69999999999999900 ) ;
#203 = LOCAL_TIME ( 8, 49, 17.00000000000000000, #219 ) ;
#204 = CC_DESIGN_PERSON_AND_ORGANIZATION_ASSIGNMENT ( #27, #160, ( #21 ) ) ;
#205 = CC_DESIGN_PERSON_AND_ORGANIZATION_ASSIGNMENT ( #220, #122, ( #162 ) ) ;
#206 = ORIENTED_EDGE ( 'NONE', *, *, #96, .F. ) ;
#207 = CARTESIAN_POINT ( 'NONE',  ( 8.487430028126970800, 12.85190222140398900, 0.8477078692485936500 ) ) ;
#208 = CARTESIAN_POINT ( 'NONE',  ( -4.362779936338336600E-014, -4.298069287684550800, -0.2134719680957811700 ) ) ;
#209 = EDGE_CURVE ( 'NONE', #235, #80, #54, .T. ) ;
#210 = UNCERTAINTY_MEASURE_WITH_UNIT (LENGTH_MEASURE( 1.000000000000000100E-005 ), #85, 'distance_accuracy_value', 'NONE');
#211 = DIRECTION ( 'NONE',  ( 0.0000000000000000000, 0.0000000000000000000, 1.000000000000000000 ) ) ;
#212 = CARTESIAN_POINT ( 'NONE',  ( 0.0000000000000000000, 0.0000000000000000000, 0.0000000000000000000 ) ) ;
#213 = DATE_AND_TIME ( #126, #94 ) ;
#214 = CARTESIAN_POINT ( 'NONE',  ( 4.996003610813200500E-016, 2.442490654175340100E-015, 0.6232786285613779500 ) ) ;
#215 = PERSON_AND_ORGANIZATION ( #151, #161 ) ;
#216 = ORIENTED_EDGE ( 'NONE', *, *, #52, .F. ) ;
#217 = PLANE ( 'NONE',  #176 ) ;
#218 = LOCAL_TIME ( 8, 49, 17.00000000000000000, #20 ) ;
#219 = COORDINATED_UNIVERSAL_TIME_OFFSET ( 2, 0, .AHEAD. ) ;
#220 = PERSON_AND_ORGANIZATION ( #151, #161 ) ;
#221 = CC_DESIGN_APPROVAL ( #109, ( #162 ) ) ;
#222 = DIRECTION ( 'NONE',  ( 0.0000000000000000000, 0.0000000000000000000, 1.000000000000000000 ) ) ;
#223 = EDGE_LOOP ( 'NONE', ( #167, #216 ) ) ;
#224 = CARTESIAN_POINT ( 'NONE',  ( 4.996003610813200500E-016, 2.442490654175340100E-015, 3.000000000000000000 ) ) ;
#225 = PRODUCT ( '110-0235E BK7 pl-cx 25.4 F250', '110-0235E BK7 pl-cx 25.4 F250', '', ( #159 ) ) ;
#226 = CARTESIAN_POINT ( 'NONE',  ( -7.285838599102589800E-014, -12.85190222140400700, 0.6383147123381719400 ) ) ;
#227 = COORDINATED_UNIVERSAL_TIME_OFFSET ( 2, 0, .AHEAD. ) ;
#228 = CARTESIAN_POINT ( 'NONE',  ( -7.285838599102589800E-014, 4.298069287684534800, -0.2134719680957716200 ) ) ;
#229 = DIRECTION ( 'NONE',  ( -0.0000000000000000000, -0.0000000000000000000, -1.000000000000000000 ) ) ;
#230 = CARTESIAN_POINT ( 'NONE',  ( -7.459310946700270500E-014, -4.298069287684549900, -0.2134719680957709900 ) ) ;
#231 = PERSON_AND_ORGANIZATION ( #151, #161 ) ;
#232 = EDGE_LOOP ( 'NONE', ( #164, #198, #175 ) ) ;
#233 = DIRECTION ( 'NONE',  ( 0.0000000000000000000, 0.0000000000000000000, 1.000000000000000000 ) ) ;
#234 = DIRECTION ( 'NONE',  ( 1.000000000000000000, 1.014630051716460000E-031, -2.264349047295540000E-016 ) ) ;
#235 = VERTEX_POINT ( 'NONE', #45 ) ;
ENDSEC;
END-ISO-10303-21;
